Turbonegro - City Of Satan Chords & Tabs

 

City Of Satan Chords & Tabs

Turbonegro Chords & Tabs

Version: 2 Type: Tab

City Of Satan Tab

Intro/Verse
|-------------------------|
|-------------------------|
|-------------------------|
|--7-/-9----12--7-/-9-----|
|--5-/-7----10--5-/-7-----|
|-------------------------|
[ Tab from: http://www.guitartabs.cc/tabs/t/turbonegro/city_of_satan_tab_ver_2.html ]
Pre-Chours
|-------------------------------------|
|-------------------------------------|
|-------------------------------------|
|--7-7-7-7-9-10-10-10-10-12-12-12-12--|
|--5-5-5-5-7--8--8--8--8-10-10-10-10--|
|-------------------------------------|

"Break"
|---------2-----|
|---------2-----|
|---------0--9--|
|--5-/-7-----7--|
|--3-/-5-----7--|
|---------------|