Turbonegro - Age Of Pamparius Chords & Tabs

 

Age Of Pamparius Chords & Tabs

Turbonegro Chords & Tabs

Version: 1 Type: Tab 0 ratings
1 star 2 stars 3 stars 4 stars 5 stars
comments

Age Of Pamparius Tab

e|-----------------------------------------------------------------------------------------------------|
B|-----------------------------------------------------------------------------------------------------|
G|-----------------------------------------------------------------------------------------------------|
D|--------------------------------------------------------7-(9)--7--5----------------------------------|
A|-/7----------5---7-------------------5-------5----7-------------------7----5-------------------------|
E|------5/7----------------------5/7-------7-----------------------------------------------------------|

e|-----------------------------------------------------------------------------------------------------|
B|-----------------------------------------------------------------------------------------------------|
G|-----------------------------------------------------------------------------------------------------|
D|-------------------------------------------------5จจ----------7-(9)--7--5--------5-------------------|
A|-----------5---7---------------------5-------5-------7----------------------7------------------------|
E|-----5/7-----------------------5/7-------7-----------------------------------------------------------|
[ Tab from: http://www.guitartabs.cc/tabs/t/turbonegro/age_of_pamparius_tab.html ]
e|-----------------------------------------------------------------------------------------------------|
B|-------------------------------------------------------8-------8----10-------------------------------|
G|----------7------9---7-------------7--9----------7/9-------9-----------------------------------------|
D|----7/9-----9---------------7/9----------------------------------------------------------------------|
A|-----------------------------------------------------------------------------------------------------|
E|-----------------------------------------------------------------------------------------------------|

e|--10 (12)-10---7--------7-------10(12)-10---7--------10(12)---10-------------------------------------|
B|-------------------10---------------------------10---------------------------------------------------|
G|-----------------------------------------------------------------------------------------------------|
D|-----------------------------------------------------------------------------------------------------|
A|-----------------------------------------------------------------------------------------------------|
E|-----------------------------------------------------------------------------------------------------|

e|--10 (12)-10---7---10-(12~~~)-------15(17)-15---12---15(17~~~)---------------------------------------|
B|-----------------------------------------------------------------------------------------------------|
D|-----------------------------------------------------------------------------------------------------|
A|-----------------------------------------------------------------------------------------------------|
E|-----------------------------------------------------------------------------------------------------|

e|---14--15--------12----------10--------------7-------------5-----------------------------------------|
B|-----------------------12-----------10-------------8------------5--------5----7----8----10---10(12)--|
D|-----------------------------------------------------------------------------------------------------|
A|-----------------------------------------------------------------------------------------------------|
E|-----------------------------------------------------------------------------------------------------|
Comments