Tura Satana - Dry Chords & Tabs

 

Dry Chords & Tabs

Tura Satana Chords & Tabs

Version: 1 Type: Bass Tab 0 ratings
1 star 2 stars 3 stars 4 stars 5 stars
comments

Dry Bass Tab

Band   : Tura Satana
Album  : Relief Through Release
Song   : Dry

Tabbed by : Bucon (Mark D.)

Drop D Tuning						

Riff 1 :							
G|--------------------------------------------------------------|		
D|--------------------------------------------------------------|		
A|--------------------------------------------------------------|		
D|--2-2-2---2-2-2---2-2-2-2-2-2-2---2-2-2---2-2-2---2-2-1-1-0-0-|		


Riff 2 : 							
G|-----------------------------------------|	
D|-----------------------------------------|	
A|-----------------------------------------|	
D|----0-0-3-3\5-5----5-4-3-2-1-0-0---------|									
2nd part of this is done like a long slide, 
hitting each note as you slide.
[ Tab from: http://www.guitartabs.cc/tabs/t/tura_satana/dry_btab.html ]
Riff 3 :
G|-----------------------------------------|		
D|-----------------------------------------|		
A|-----------------------------------------|	
D|-------------5-4-(0)-4-3-----------------|

The (0) isn't actually played in the song, 
but I think it sounds good :)

								
Riff 4 :							
G|---------------------------------------|
D|---------------------------------------|		
A|---------------------------------------|
D|----0-0---0h3\5/3-----0-0---0h3\5------|		

Piece all the bits together in the right order, 
and it should sound half-decent :)


Send comments/corrections/TS Tabs(guitar/bass)/flames 
to : bucon@eircom.net, 
or come find me on :

irc.phishy.net ( The Phriendly IRC Network).

Comments