Tupac Shakur - Thugz Mansion Chords & Tabs

 

Thugz Mansion Chords & Tabs

Tupac Shakur Chords & Tabs

Version: 3 Type: Tab

Thugz Mansion Tab

2Pac Shakur and Nas.

e|----------------------------------------------------------------|
B|-----------------4--4------2p1-----------------4--4-------------|
G|--4p3-4p3--------5--5----------3p1-------------3--3-------------|
D|-----------------------------------3----------------------------|
A|------------------------------------------1/3--------3----------|
E|--------------4-------4-----------------------------------------|

e|---------6p4-4h6--------------------------------------------------|
B|--4/6----------------2----4---4/6--------2/42---------------------|
G|---------------------1----2---2/4--------1/21---------------------|
D|------------------------------------------------------------------|
A|------------------------------------------------------------------|
E|------------------------------------------------------------------|
[ Tab from: http://www.guitartabs.cc/tabs/t/tupac_shakur/thugz_mansion_tab_ver_3.html ]
e|----------------------------------------------------------------|
B|-2--4---11------11----9------------4--4-------------------------|
G|-1--2---9----9----------7----------5--5-------------------------|
D|----------------------------------------------------------------|
A|----------------------------------------------------------------|
E|-----------------------------1/4---------4----------------------|

e|--4h6p4-------4-3---------------8-8-8/98--------------------------|
B|----------4-6-----4--4-----------------------2---4---4/6----------|
G|--------5---------3--3-----------------------1---2---2/4----------|
D|------------------------------------------------------------------|
A|-------------------------3----------------------------------------|
E|------------------------------------------------------------------|

e|----------------------------------------------------------------|
B|-2---4---11-----11-----9p8--------------------------------------|
G|-1---2---9----9-----------10p8----------------------------------|
D|----------------------------------------------------------------|
A|----------------------------------------------------------------|
E|----------------------------------------------------------------|