Tupac Shakur - Thugz Mansion Acoustic Chords & Tabs

 

Thugz Mansion Acoustic Chords & Tabs

Tupac Shakur Chords & Tabs

Version: 7 Type: Tab 0 ratings
1 star 2 stars 3 stars 4 stars 5 stars
comments

Thugz Mansion Acoustic Tab

   
Tupac - Thugz Mansion (Acoustic)

PRE-INTRO:
e|--------------|
b|--------------|
G|--4\3-4\3-----|
D|--------------|
A|--------------|
E|--------------|

During the verses this basic riff is played by one acoustic guitar and improvisations
are played by another acoustic guitar.

BASIC RIFF:
   Ab (466544 for strum)     Cm7 (35343)
e|-------x-----------x-----|--------x-----------x-----|
B|----4--x--4-----4--x-----|-----4--x--4-----4--x-----|
G|----5--x--5-----5--x-----|-----3--x--3-----3--x-----|
D|----6--x--6-----6--x-----|-----5--x--5-----5--x-----|
A|-------x-----------x-----|-/3-----x-----3-----x-----|
E|-4-----x-----4-----x-----|--------x-----------x-----|
[ Tab from: http://www.guitartabs.cc/tabs/t/tupac_shakur/thugz_mansion_acoustic_tab_ver_7.html ]
   Bbm7  Cm7  C#maj7         Bbm7  Cm7  Gdim6
e|-------------------x-----|-----------/6----6--------|
B|-2-----4---/6------x-----|-2-----4---/5-------5-----|
G|-1-----3---/5------x-----|-1-----3---/6----------6--|
D|-3-----5---/6------x-----|-3-----5---/5-------------|
A|-1-----3--------4--x-----|-1-----3------------------|
E|-------------------x-----|--------------------------|

You can use the Ab major scale for the improvising:

e|-------------------------------------8-9-11--13-15-16--|
B|------------------------------8-9-11-------------------|
G|--------------------5-6-/8-10--------------------------|
D|--------------5-6-8------------------------------------|
A|-----3-4-6-/8------------------------------------------|
E|-4-6---------------------------------------------------|

CHORUS: the first two bars are strummed, and the last two bars are the same as in the basic riff.
This is the rhytm (o = strum, x = muted hit with right hand):

|1       2       3       4       | 
|o   o o x   o       o o x       |
Comments