Tupac Shakur - Thugz Mansion Acoustic Chords & Tabs

 

Thugz Mansion Acoustic Chords & Tabs

Tupac Shakur Chords & Tabs

Version: 4 Type: Tab 0 ratings
1 star 2 stars 3 stars 4 stars 5 stars
comments

Thugz Mansion Acoustic Tab

   
THug Masion(acoustic) - 2Pac
-------------------------------------------------------------------------------

Tabbed by:string_liznerz
Email:stringliznerz@aol.com

Tuning:E-A-D-G-B-E

Most of the pluck are upwards...

Intro:

e|---------------------------------------------------------------------------|
B|---------------------------------------------------------------------------|
G|-2\3---2\3-----------------------------------------------------------------|
D|---------------------------------------------------------------------------|
A|---------------------------------------------------------------------------|
E|---------------------------------------------------------------------------|
[ Tab from: http://www.guitartabs.cc/tabs/t/tupac_shakur/thugz_mansion_acoustic_tab_ver_4.html ]
e|-----------------------------------------------------------4h6--4----------|
B|---------------------------------------------4----4----4h6-----------------|
G|----5-upward-pluck--5----5h6-pull off 2x-----5----5------------------------|
D|----6---------------6------------------------5----5------------------------|
A|----6---------------6---------------------3-------3------------------------|
E|--4-----------------4--4---------------------------------------------------|
    G#                                      Cm  
e|----------------------------------------6----------------------------------|
B|-2--\--4---6----4\6\4------2-\--4----9----9--------------------------------|
G|-1--\--3---6----3\5\3------1-\--3-----------6------------------------------|
D|-3--\--6---6---------------3-\--6------------------------------------------|
A|-1--\--3---4---------------1-\--3----6-------------------------------------|
E|---------------------------------------------------------------------------|
  Bbm7  Cm7  D              Bbm7 Cm7   Eb7
e|-------------4h6-----4h6-4/3----------8h9-8h9-p8---------------------------|
B|-----------------4h6---------4--4------------------------------------------|
G|----5----5-------------------5--5------------------------------------------|
D|----6----6-------------------5--5------------------------------------------|
A|----6----6-----------------3----3------------------------------------------|
E|--4------4-----------------------------------------------------------------|
    G#                       Cm
e|-----------------------------------6-----6---------------------------------|
B|-2--\--4---6----------2-\--4----9----9-----9-------------------------------|
G|-1--\--3---6----------1-\--3-----------6-----------------------------------|
D|-3--\--6---6----------3-\--6-----------------------------------------------|
A|-1--\--3---4----------1-\--3----6------------------------------------------|
E|---------------------------------------------------------------------------|
  Bbm7  Cm7  D         Bbm7 Cm7   Eb7

e|---------------------------------------------------------------------------|
B|----------------4--4h6--4--------------------------------------------------|
G|----5---6-------5--3----3--------------------------------------------------|
D|----6---6-------5--5----5--------------------------------------------------|
A|----6---6----3-----3----3--------------------------------------------------|
E|--4-----4------------------------------------------------------------------|
    G#              Cm    Cm7         
e|-----------------------------------6---------------------------------------|
B|-2--\--4---6----------2-\--4----9----9-------------------------------------|
G|-1--\--3---6----------1-\--3-----------6-----------------------------------|
D|-3--\--6---6----------3-\--6-----------------------------------------------|
A|-1--\--3---4----------1-\--3----6------------------------------------------|
E|---------------------------------------------------------------------------|
  Bbm7  Cm7  D         Bbm7 Cm7   Eb7

Intro 2 end are the same chords...

Rhythem chords...
Main Beat...
G#-Cm
Bbm7-Cm7-D
Bbm7-Cm7-Eb7

| /  slide up
| \  slide down
| h  hammer-on
| p  pull-off
| ~  vibrato
| +  harmonic
| x  Mute note


That's all i got right now..i'm still doing the guitar 2...it's kinda hard
coz i combine guitar 1 and guitar 2...in one acoustic playin...
If you got any questions, my email is here...stringliznerz@aol.com
Comments