Tupac Shakur - Thugz Mansion Acoustic Chords & Tabs

 

Thugz Mansion Acoustic Chords & Tabs

Tupac Shakur Chords & Tabs

Version: 3 Type: Tab 0 ratings
1 star 2 stars 3 stars 4 stars 5 stars
comments

Thugz Mansion Acoustic Tab

------------5-5----------------4-4-----9p7-------
------------5-5----------------5-5-5h7-----------
--5-5p4~----6-6-7p6------------6-6---------------
------------7-7-----9p7--------6-6---------------
------------7-7- -------9----4-4-4---------------
----------5-5-5----------------------------------
[ Tab from: http://www.guitartabs.cc/tabs/t/tupac_shakur/thugz_mansion_acoustic_tab_ver_3.html ]
-2-4-4/5~----2-4-7~------------------------------
-3-5-5/7~----3-5-5~-------------------------------
-4-6-6/7~----4-6-7~-------------------------------
-4-6-6/7~----4-6-6~-------------------------------
-2-4-4/5~----2-4-5~-------------------------------
-2-4-4/5~----2-4-5~-------------------------------

i think this sounds really good...
comments: ataririot2004@hotmail.com
tabbed by: kristen
Comments