Tupac Shakur - Thugz Mansion Acoustic Chords & Tabs

 

Thugz Mansion Acoustic Chords & Tabs

Tupac Shakur Chords & Tabs

Version: 2 Type: Tab 0 ratings
1 star 2 stars 3 stars 4 stars 5 stars
comments

Thugz Mansion Acoustic Tab

   
Tupac Shakur - Thugz Mansion (Acoustic)


Standard:
Gtr I (E A D G B E) 

  
 4/4
  Gtr I
                                  |-3-|
[ Tab from: http://www.guitartabs.cc/tabs/t/tupac_shakur/thugz_mansion_acoustic_tab_ver_2.html ]
|-----------------------|---------3-6-3----|
|-----------------------|---4---4----------|
|---5---5---6-7-6-------|---5---5----------|
|---6---6---------6-4---|---5---5----------|
|---6---6-------------4-|-3----------------|
|-4-----4---------------|------------------|


      

|--------------|-------6----6-4--------|
|-2-4-4-6------|-2-4-4----------6-4----|
|--------------|-----------------------|
|-3S5-5-6------|-3S5-5-6---------------|
|--------------|-----------------------|
|--------------|-----------------------|

listen to the song and play...it go sound good..enough

=^_^=
feel free to talk to me 'bout it ~~>roze_angel@hotmail.com
                                                   -sleepwalker-
Comments