Tupac Shakur - Loyal To The Game Chords & Tabs

 

Loyal To The Game Chords & Tabs

Tupac Shakur Chords & Tabs

Version: 1 Type: Bass Tab 0 ratings
1 star 2 stars 3 stars 4 stars 5 stars
comments

Loyal To The Game Bass Tab

Well... I'd say not to post this tab anywhere else.. but you guys would just do it 
so what does it matter :p

Just get the timing down and your all good :)

G--------------------------|
D----8---10---11----15-----|
A--------------------------|
E--6---8----9----11--------|
[ Tab from: http://www.guitartabs.cc/tabs/t/tupac_shakur/loyal_to_the_game_btab.html ]
G---------------------------|
D--15--13--11--10-11--------|
A---------------------------|
E---------------------------|

G----------------------5h6p5-|
D--11--10--------------------|
A----------13--11-13---------|
E----------------------------|

Thats purdy much it. Have fun.
Comments