Tupac Feat Nas - Thugs Mansion Acoustic Chords & Tabs

 

Thugs Mansion Acoustic Chords & Tabs

Tupac Feat Nas Chords & Tabs

Version: 1 Type: Tab 0 ratings
1 star 2 stars 3 stars 4 stars 5 stars
comments

Thugs Mansion Acoustic Tab

i have looked around this site and there is no acurate tab for 
thugs mansion so heres mine

standard tuning
                    THUGS MANSION: TUPAC feat NAS
      |-----------------------------------------4/6--64-4h6-----------------
      |-----4-t-4----------------------4-t-4----4/6--64-4h6-----------------------
      |-----5-a-5-----6-5-3------------3-a-3---------------------------------
      |-----6-p-6-----------6 3--------5-p-5---------------------------------
      |--------------------------6--3---------3------------------------
      |--4---------4-------------------------------------------------

      |----------4/64------6--------------------------------------------
      |---2/4-6--4/64--2/4-5--------------------------------------------------
      |---1/3-5---------1/3-6--------------------------------------------
      |------------------------------------------------------------
      |------------------------------------------------------------
      |------------------------------------------------------------
[ Tab from: http://www.guitartabs.cc/tabs/t/tupac_feat_nas/thugs_mansion_acoustic_tab.html ]
      in this song there are many riffs and scale runs in between the cords
      there pretty easy to figure out as long as u remember that the song is in g sharp
      so most of the riffs and runs are out of the g sharp major scale and ocasionaly 
      the g sharp blues scale, just in case u dont know them here they are

      G SHARP major scale
      |-----------------------------3-4-------------------------------
      |-------------------------4-6-----------------------------------
      |-------------------3-5-6----------------------------------------
      |-------------3-5-6----------------------------------------------
      |-------3-4-6----------------------------------------------------
      |---4-6--------------------------------------------------------- 


      G SHARP blues scale
      |------------------------4-7--------------------------------
      |--------------------4-7------------------------------------
      |----------------4-6----------------------------------------
      |------------4-6--------------------------------------------
      |--------4-6------------------------------------------------
      |----4-7----------------------------------------------------


      These scales can be used to improvise, solo whateva
      to change the key of the scale just move it up so the first
      note is on say "a" for example then the scale is in "a" just like
      a bar chord

      any questions on comments, email me at hamish881@hotmail.com


                           cheers


Comments