Tulp Tony - Nothing Chords & Tabs

 

Nothing Chords & Tabs

Tulp Tony Chords & Tabs

Version: 1 Type: Tab 0 ratings
1 star 2 stars 3 stars 4 stars 5 stars
comments

Nothing Tab

                             "NOTHING"
                       WRITTEN BY TONY TULP
                           


INTRO   GTR.1                                      DELAY PEDAL
|---------------|---------------|---------------|---------------|
|---------------|---------------|---------------|---------------|
|------6--------|------6--------|------6--------|------6--------|
|----6---6---6--|----6---6---6--|----6---6---6--|----6---6---6--|
|--4-------4----|--0-------0----|--4-------4----|--0-------0----|
|---------------|---------------|---------------|---------------|

|---------------|---------------|---------------|---------------|
|---------------|---------------|---------------|---------------|
|------6--------|------6--------|------6--------|------6--------|
|----6---6---6--|----6---6---6--|----6---6---6--|----6---6---6--|
|--4-------4----|--3-------3----|--2-------2----|--0-------0----|
|---------------|---------------|---------------|---------------|

|---------------|
|---------------|
|-------6-------|       (HOLD OUT THROUGH INTRO)
|-------6-------|
|-------4-------|
|---------------|


GTR.2 VERSE 1 AND 2                 DISTORTION PEDAL        6 TIMES
|---------------|-----|---------------|-----|-----------------------|
|---------------|-----|---------------|-----|-----------------------|
|---66666666----|--6--|---66666666----|--6--|---6666666666666666----|
|---66666666----|--6--|---66666666----|--6--|---6666666666666666----|
|---44444444----|--0--|---33333333----|--0--|---4444444444444444----|
|---------------|-----|---------------|-----|-----------------------|


GTR.1 VERSE 1 AND 2    PALM MUTED      DISORTION PEDAL     4 TIMES
|-------------------------|----------|----------|----------|
|-------------------------|----------|----------|----------|
|-------------------------|-99999999-|-22222222-|----------|
|-11-11-11-11-11-11-11-11-|-99999999-|-22222222-|-66666666-|
|-11-11-11-11-11-11-11-11-|-77777777-|-00000000-|-66666666-|
|-9--9--9--9--9--9--9--9--|----------|----------|-44444444-|
                     (COME IN AFTER GTR.2 DOES HIS RIFF 2x)          

GTR.1 REFRAIN               DISTORTION PEDAL            4 TIMES
|-------------------------|----------|----------|
|-------------------------|----------|----------|
|-------------------------|-99999999-|-44444444-|
|-11-11-11-11-11-11-11-11-|-99999999-|-44444444-|
|-11-11-11-11-11-11-11-11-|-77777777-|-22222222-|
|-9--9--9--9--9--9--9--9--|----------|----------|

|------|------|
|------|------|
|------|-2222-|
|-6666-|-2222-|
|-6666-|-0000-|
|-4444-|------|


GTR.2 REFRAIN             DISTORTION PEDAL             4 TIMES
|----------|----------|----------|----------|
|----------|----------|----------|----------|
|-66666666-|-66666666-|-66666666-|-66666666-|
|-66666666-|-66666666-|-66666666-|-66666666-|
|-44444444-|-00000000-|-33333333-|-44444444-|
|----------|----------|----------|----------|


GTR.2 FILL                DISTORTION PEDAL            2 TIMES
|----------|----------|----------|----------|
|----------|----------|----------|----------|
|----------|----------|----------|----------|
|-66666666-|-66666666-|-44444444-|-44444444-|
|-44444444-|-00000000-|-00000000-|-66666666-|
|----------|----------|----------|----------|

[ Tab from: http://www.guitartabs.cc/tabs/t/tulp_tony/nothing_tab.html ]
GTR.1 SOLO          WAH, ECHO, DISTORTION PEDALS   2 TIMES
|-------------------------|-------------------------|
|-------------------------|-------------------------|
|-------------------------|-------------------------|
|-------------------------|-------------------------|
|-11-11-11-11-11-11-11-11-|-14-14-14-14-14-14-14-14-|
|-9--9--9--9--9--9--9--9--|-12-12-12-12-12-12-12-12-|

|-------------------------|-------------------------|
|-------------------------|-------------------------|
|-------------------------|-------------------------|
|-------------------------|--------------^--^--^----|
|-16-16-16-16-16-16-16-16-|-18-18-18-18-18-18-18-18-|
|-14-14-14-14-14-14-14-14-|-16-16-16-16-16-16-16-16-|
                                                      2 TIMES
|-------------------------|-------------------------|
|-------------------------|-------------------------|
|-------------------------|-18-18-18-18-18-18-18-18-|
|-18-18-18-18-18-18-18-18-|-0--0--0--0--0--0--0--0--|
|-16-16-16-16-16-16-16-16-|-------------------------|
|-------------------------|-------------------------|
|
|   GTR.2 SOLO
|-------------------------|-------------------------|
|-------------------------|------------^------------|
|------------^------------|---------18~~~~----------|
|---------18~~~~----------|-------------------------|
|-------------------------|-------------------------|
|-------------------------|-------------------------|

|-------------------------|-------------------------|
|-------------------------|-------------------------|
|-------------------------|-------------------------|
|-16-16-16-16-16-16-16-16-|-16-16-16-16-16-16-16-16-|
|-0--0--0--0--0--0--0--0--|-18-18-18-18-18-18-18-18-|
|-------------------------|-------------------------|
|
|
|-------------------------|-------------------------|
|-------------------------|-------------------------|
|------------^------------|-------------------------|
|---------16~~~~----------|------------^------------|
|-------------------------|----------18~~~~---------|
|-------------------------|-------------------------|


GTR.1 OUTRO                      DISTORTION PEDAL
|------------------|-------------|-------------|------|------|
|------------------|-------------|-------------|------|------|
|------------------|-9--9--9-9-9-|-4--4--4-4-4-|------|-2222-|
|-11--11--11-11-11-|-9--9--9-9-9-|-4--4--4-4-4-|-6666-|-2222-|
|-11--11--11-11-11-|-7--7--7-7-7-|-2--2--2-2-2-|-6666-|-0000-|
|-9---9---9--9--9--|-------------|-------------|-4444-|------|

|------------------|-------------|-------------|----------|-----|
|------------------|-------------|-------------|----------|-----|
|------------------|-9--9--9-9-9-|-2--2--2-2-2-|----------|--6--|
|-11--11--11-11-11-|-9--9--9-9-9-|-2--2--2-2-2-|-66666666-|--6--|
|-11--11--11-11-11-|-7--7--7-7-7-|-0--0--0-0-0-|-66666666-|--4--|
|-9---9---9--9--9--|-------------|-------------|-44444444-|-----|


                            DELAY PEDAL
|---------------|---------------|---------------|-----|
|---------------|---------------|---------------|-----|
|------6--------|------6--------|------6--------|--6--|
|----6---6---6--|----6---6---6--|----6---6---6--|--6--|
|--4-------4----|--0-------0----|--3-------3----|--4--|
|---------------|---------------|---------------|-----|



 NOTATIONS:
   ^   =  BEND
   ~   =  VIBRETO 
   /   =  SLIDE



LYRICS: 

VERSE 1

AS I LOOK AT MY LIFE 
I SEE NOTHIN BUT YOU AND I
I WISH YOU COULD HELP ME
I WISH YOU SOULD HELP ME SEE

REFRAIN

THERE IS NOTHIN THAT I'D RATHER DO
THEN BELEIVE IN SOMEONE JUST LIKE YOU
THERE IS NOTHIN THAT I'D RATHER DO
THEN HAVE FAITH IN SOMEONE JUST LIKE YOU

VERSE 2
AS I LOOK IN THE MIRROR AT ME 
ALL I CAN SEE IS WORTHLESS HPES AND DREAMS
ALL I THINK ABOUT DAY AND NIGHT 
IS WHEN ARE YOU COMIN TO TAKE ME FROM THIS LIFE

SOLO 

REFRAIN

OUTRO AH AH AH AH AH 
     AH AH AH AH AH AH AH AH AH AH AH
Comments