Tubes - Shes A Beauty Chords & Tabs

 

Shes A Beauty Chords & Tabs

Tubes Chords & Tabs

Version: 1 Type: Tab 0 ratings
1 star 2 stars 3 stars 4 stars 5 stars
comments

Shes A Beauty Tab

Intro:
I think this is in B Minor, even though it starts on Amaj.
I hope to complete the song eventually, but here is the intro as far as I can tell.

Guitar? Keyboard? intro... Heavy Phasing regenreation.
----------------|
----------------|
----------14----|
-------14-------|
----16----------|
-17-------------|

It may also just be an A note with the heavy effects altering the pitch.

[ Tab from: http://www.guitartabs.cc/tabs/t/tubes/shes_a_beauty_tab.html ]
Amaj triad listen to song for beat. Its played 7 times I believe.
---5-x-5-x-5----|
---5-x-5-x-5----|
---2-x-2-x-2----|
----------------|
----------------|

Now the heavy riff. It sounds really differet slowed down.I try to play as many notes as 
can to get that real big sound on the recording.

--0-2----3------|
--3-3----3--3---|
--2-2-------2---|
----------------|
----------------|
--0-2----3--2---|

I also recorded the high part, then dubbed the low part in, and it sounded just as big.  
for the part before the chorus. Its a Bm, and an F#m, the second time you end on a D 
the chorus.

More to come as I get it done.

Dan Hart
"dhart2 at Comcast dot net"
Comments