Tub Ring - Where's The Robot? Chords & Tabs

 

Where's The Robot? Chords & Tabs

Tub Ring Chords & Tabs

Version: 1 Type: Tab 0 ratings
1 star 2 stars 3 stars 4 stars 5 stars
comments

Where's The Robot? Tab

Song: Where's the Robot?
Artist: Tub Ring
Tabbed by: CheezusCrust

Intro
E|-------------------------------------------------7-7-7-7-7-7-7-7-----
B|-----------------------------11-11-10-10-8-8-7-7---------------------
G|---------------------------------------------------------------------
D|-2-2--4-4--5---------------------------------------------------------
A|--------------3-3-3-3-3----------------------------------------------
E|---------------------------------------------------------------------

Au - to - ma - tion
E|---------------------------------------------------------------------
B|---------------------------------------------------------------------
G|--9---9---9---9------------------------------------------------------
D|--9---9---9---9------------------------------------------------------
A|--7---7---7---7------------------------------------------------------
E|---------------------------------------------------------------------
[ Tab from: http://www.guitartabs.cc/tabs/t/tub_ring/wheres_the_robot_tab.html ]
What's the point in
E|---------------------------------------------------------------------
B|---------------------------------------------------------------------
G|------7-7-7-7--------------------------------------------------------
D|---------------7-7-7-7-7-7-7-7---------------------------------------
A|-5-5-----------------------------------------------------------------
E|---------------------------------------------------------------------

Robot, where's the robot
E|---------------------------------------------------------------------
B|---------------------------------------------------------------------
G|----6--7--10---------------------------------------------------------
D|-9--6--7--10--------------------------------------------------------- X 4
A|-9--4--5--8----------------------------------------------------------
E|-7-------------------------------------------------------------------

it's my destiny
E|---------------------------------------------------------------------
B|-10-10-10-10---13-12-10----------------------------------------------
G|------------------------11-10----------------------------------------
D|------------------------------11------------------------------------- X 4
A|---------------------------------12----------------------------------
E|---------------------------------------------------------------------

E|---------------------------------------------------------------------
B|---------------------------------------------------------------------
G|-----------------5-5-------------------------------------------------
D|--4-4--6-6--7-7--5-5------------------------------------------------- X 4
A|--4-4--6-6--7-7--3-3-------------------------------------------------
E|--2-2--4-4--5-5------------------------------------------------------

Repeat the whole thing over again and that's a wrap!
Comments