Tub Ring - Bite The Wax Tadpole Chords & Tabs

 

Bite The Wax Tadpole Chords & Tabs

Tub Ring Chords & Tabs

Version: 1 Type: Tab 0 ratings
1 star 2 stars 3 stars 4 stars 5 stars
comments

Bite The Wax Tadpole Tab

Bite The Wax Tadpole
Song by: Tub Ring
Tabbed by: Cheezus Crust


For the beginning of the song, slide the side of your pick against 
the 4th, 5th, and 6th strings of your guitar to make that scratchy 
noise.

"Last night I awoke with all the answers..." 
E|-----------------------------------------
G|-----------------------------------------
B|-5--8---5--8-13-12--8---5---------------- X 2
D|-5--8-6-5--8-13-12--8-6-5----------------
A|-3--6-6-3--6-11-10--6-6-3----------------
E|------4---------------4------------------ 


E|-----------------------------------------
G|-----------------------------------------
B|-5-5-5-5--4-4---------------------------- X 8
D|-5-5-5-5--4-4----------------------------
A|-3-3-3-3--2-2----------------------------
E|-----------------------------------------

"Tonight, tonight, I turn off the light"
E|-11---14---11---14-----------------------
G|-----------------------------------------
B|----------------------------------------- 
D|-----------------------------------------
A|-----------------------------------------
E|-----------------------------------------

"YEEEEAAAAHHHH"
E|----------------------------------------------
G|----------------------------------------------
B|-5-5--8-8--11-12-11-8-7-5-5-8-8-5--5-5-8-8-5--
D|-5-5--8-8--11-12-11-8-7-5-5-8-8-5--5-5-8-8-5--
A|-3-3--6-6--9--10-9--6-5-3-3-6-6-3--3-3-6-6-3--
E|----------------------------------------------

The Slower Part
E|---------------------------------------------------------
G|--5--4--5--4--5--4--5--4--8--7--8--------5--4--5--4------
B|---5--4--5--4--5--4--5--4--8--7--8---7-7--5--4--5--4-----
D|----5--4--5--4--5--4--5--4--8--7--8--7-7---5--4--5--4----
A|-------------------------------------5-5-----------------
E|---------------------------------------------------------
[ Tab from: http://www.guitartabs.cc/tabs/t/tub_ring/bite_the_wax_tadpole_tab.html ]
"I dreamt I was swimming in the ocean"
E|---------------------------------------------------------
G|--5--4--5--4--5--4--5--4--8--7--8--------5--4--5--4------
B|---5--4--5--4--5--4--5--4--8--7--8---7-7--5--4--5--4----- During this part, it sounds a
D|----5--4--5--4--5--4--5--4--8--7--8--7-7---5--4--5--4---- little better if you slide your 
A|-------------------------------------5-5----------------- finger across the frets.
E|---------------------------------------------------------

"It's frightening size..."
E|---------------------------------------------------------
G|---------------------------------------------------------
B|---------------------------------------------------------
D|-5-5-5-5-5--7-7-7-7-7--8-8-8-8-8--9-9-9-9-9--------------
A|-5-5-5-5-5--7-7-7-7-7--8-8-8-8-8--9-9-9-9-9--------------
E|-3-3-3-3-3--5-5-5-5-5--6-6-6-6-6--7-7-7-7-7--------------

"And I found my purpose"
E|---------------------------------------------------------
G|--5--4--5--4--5--4--5--4--8--7--8--------5--4--5--4------
B|---5--4--5--4--5--4--5--4--8--7--8---7-7--5--4--5--4-----
D|----5--4--5--4--5--4--5--4--8--7--8--7-7---5--4--5--4----
A|-------------------------------------5-5-----------------
E|---------------------------------------------------------

"Bite The Wax Tadpole"
E|---------------------------------------------------
G|---------------------------------------------------
B|--------------------------------------------------- Slow down during
D|-5-5-5-5-5--7-7-7-7-7--8-8-8-8-8--9-9-9-9---10~---- this part
A|-5-5-5-5-5--7-7-7-7-7--8-8-8-8-8--9-9-9-9---10~----
E|-3-3-3-3-3--5-5-5-5-5--6-6-6-6-6--7-7-7-7---8-~----

Surprise!  The song's not over!

"Last night I awoke with all the answers..."
E|-----------------------------------------
G|-----------------------------------------
B|-5--8---5--8-13-12--8---5---------------- X 2
D|-5--8-6-5--8-13-12--8-6-5----------------
A|-3--6-6-3--6-11-10--6-6-3----------------
E|------4---------------4------------------
Comments