Ttk - Didnt Think U New Chords & Tabs

 

Didnt Think U New Chords & Tabs

Ttk Chords & Tabs

Version: 1 Type: Tab 0 ratings
1 star 2 stars 3 stars 4 stars 5 stars
comments

Didnt Think U New Tab

-1--------1----------1------------------3-------------3---------3-------------0---------0---------0--------------
------0--------0----------0--------------------0-----------0----------0-------------0---------0------------------
------------------------------------------------------------------------------------------------------------------
----------------------------------------------------------------------------------------------------            intro
---------------------------------------------------------------------------------------------------------------------------------------------------------------------------------------------------------------------------------------------

[ Tab from: http://www.guitartabs.cc/tabs/t/ttk/didnt_think_u_new_tab.html ]
----------------------------------------------------------------------------------
------------------------------------------------------------------------------------
--------------7----------------------------------------------------------------------
--------------7--------7--------------------9---------------5----------------------------        verse
-------------5---------7-------------------9----------------5------------------------------
-----------------------5-------------------7---------------3---------------------------------

------------------------------------------------------
---------------------------------------------------------------
---------------------------------------------------------------
---7----------7--------7------------------------------------------
---------5---------5--------5---------7--------7---------7--------------7--------7------7----  chorus   
---------------------------------------------5-------5----------5--------------9-------9------9-------



------------------------------------------------------------------------------------------
-----------------------------------------------------------------------------------------
------------------------------------------------------------------------------------------    
------------------------------------------------------------------------------------- chorus extended
----5------5-------5-----------------------------------------------------------------
--------3------3--------3------------------------------------------------------------


this is my bands best song i think youll have to ask j for the bass email me ill give u his  adress and email me if ne one wants a free cd 
Comments