Tsunami Bomb - Take The Reins Chords & Tabs

 

Take The Reins Chords & Tabs

Tsunami Bomb Chords & Tabs

Version: 7 Type: Tab 0 ratings
1 star 2 stars 3 stars 4 stars 5 stars
comments

Take The Reins Tab

   
Song: Take the Reins

Band: Tsunami Bomb

Tabbed by: Hurleyboy

*=Palm mute
~=let note ring
\=slide up

Intro
e--------------------
b--------------------
g--------------------
d-5~--5--1-----------
a-3~--3--3--7---6---5
e-----------5---4---3

Solo  (play twice)
e------------------------------------------------------
b------------------------------------------------------
g------------------------------------------------------
d---55-33-11-0---55-33-11-0----55-33-11-0-11-55-33-66-5 
a-33-----------11-----------00-------------------------
e------------------------------------------------------

end of solo (play after solo)
e----
b----
g----
d-5~-
a-3~-
e----

Verse 
e----------------------------------------------------------------
b----------------------------------------------------------------
g----------------------------------------------------------------
d--5-5----5-5-5--------------------------------------------------
a--3-3----3-3-3---8-8----8-8-8---7-7----7-7-7-7----5-5-5-5-8-8-8-
e-----------------6-6----6-6-6---5-5----5-5-5-5----3-3-3-3-6-6-6-

Pre-Chorus
e-------------
b-------------
g-------------
d-5-----8-----
a-3--6--6--8-8
e----4-----6-6
[ Tab from: http://www.guitartabs.cc/tabs/t/tsunami_bomb/take_the_reins_tab_ver_7.html ]
Chorus
e------3-------3--------3--------------------
b--------------------------------------------
g----3-------3--------3----------------------
d-5----------------8---------8-8-8-8-7-7-7-7-
a-3------6---------6---------6-6-6-6-5-5-5-5-
e--------4-----------------------------------

Verse 2 (play the first verse 1 then this)
e-------------------------
b-------------------------
g-------444-666-777-999\-- then go back to pre chorus
d--5-5--------------------
a--3-3--------------------
e-------------------------


Bridge (Play fast)
e------------------------------------------
b------------------------------------------
g------------------------------------------
d--5-5 (x8)--1-----------------------------
a--3-3-------3-(x8)--7-(x8)--6------5------
e--------------------5-------4-(x4)-3-(x4)-
*******************************************


e-----------------------------
b-----------------------------
g--5~--5-7~--8~--8-999-888\---
d-----------------------------
a-----------------------------
e----------------------------- after this play pre-chorus twice, then

e-----------
b-----------
g-----------
d--5-------5
a--3-6-8-5-3         
e----4-6-3--

Ending 
e-------
b-------
g-------
d--8\\\-
a--6\\\-
e-------

And thats all.
Comments