Tsunami Bomb - Take The Reins Chords & Tabs

 

Take The Reins Chords & Tabs

Tsunami Bomb Chords & Tabs

Version: 3 Type: Tab 0 ratings
1 star 2 stars 3 stars 4 stars 5 stars
comments

Take The Reins Tab

   
Title: Take the Reins
Artist: Tsunami Bomb
Tabb BY: Daniel "Arnni" Greenwood
Comments: Well I Love this Song, i think the solo, is the best. A Few things
I fort needed adding ;- like the slideing bits at the start. The Solo is about
the Best bit of the song. i wAs able to Add the chorus which Non of the others
had :)

Anyway

\m/ Rock on \m/

INTRO (Play Over bass and Drums)
e|-----------------------------|
B|-----------------------------|
G|-----------------------------|
D|-9~--------9\--7\--6\--4\--7-|
A|-9~--------9\--7\--6\--4\--7-|
E|-7~--------7\--5\--4\--2\--5-|



SOLO (No Drums or bass just the solo)
e|------------------------------------------------|
B|------------------------------------------------|
G|------------------------------------------------|
D|------------------------------------------------|
A|-----9-7-5-4-----9-7-5-4-----9-7-4-5-5-9-7-10-9-|
E|-7-7---------5-5---------4-4--------------------|
Play solo Twice

Verse 1 (18, you think you're free)
e|---------------------------------------------|
B|---------------------------------------------|
G|---------------------------------------------|
D|-9-9--9-9-7-7--7-7-6-6--6-6-4-4-4-4--7-7-7-7-|
A|-9-9--9-9-7-7--7-7-6-6--6-6-4-4-4-4--7-7-7-7-|
E|-7-7--9-9-5-5--5-5-4-4--4-4-2-2-2-2--5-5-5-5-|

SOLO (Play along with drums, Bass and through the whooas)
e|------------------------------------------------|
B|------------------------------------------------|
G|------------------------------------------------|
D|------------------------------------------------|
A|-----9-7-5-4-----9-7-5-4-----9-7-4-5-5-9-7-10-9-|
E|-7-7---------5-5---------4-4--------------------|

Pre-Chorus
e|-----------------|
B|-----------------|
G|--------9--------|
D|-10--9--9--7--7--|
A|-10--9--7--7--7--|
E|--8--7-----5--5--|
[ Tab from: http://www.guitartabs.cc/tabs/t/tsunami_bomb/take_the_reins_tab_ver_3.html ]
Chorus
e|----------|-------------------|
B|----------|-------------------|
G|--5-8-----|-5--------8--7--5--|
D|--5-8-8-8-|-5--6--8--8--7--5--|
A|--3-6-8-8-|-3--6--8--6--5--3--|
E|------6-6-|----4--6-----------|

Verse 2
e|---------------------------------------------|
B|---------------------------------------------|
G|---------------------------------------------|
D|-9-9--9-9-7-7--7-7-6-6--6-6-4-4-4-4--7-7-7-7-|
A|-9-9--9-9-7-7--7-7-6-6--6-6-4-4-4-4--7-7-7-7-|
E|-7-7--9-9-5-5--5-5-4-4--4-4-2-2-2-2--5-5-5-5-|

Pre-Chorus
e|-----------------|
B|-----------------|
G|--------9--------|
D|-10--9--9--7--7--|
A|-10--9--7--7--7--|
E|--8--7-----5--5--|

Chorus
e|----------|-------------------|
B|----------|-------------------|
G|--5-8-----|-5--------8--7--5--|
D|--5-8-8-8-|-5--6--8--8--7--5--|
A|--3-6-8-8-|-3--6--8--6--5--3--|
E|------6-6-|----4--6-----------|

Bridge(Music interlude)
e|-----------------------------|
B|-----------------------------|
G|-----------------------------|
D|-9~--------9/--7/--6/--4/--7-|
A|-9~--------9/--7/--6/--4/--7-|
E|-7~--------7/--5/--4/--2/--5-|


(Outro)Donít give your life away!!
e|----------------|
B|----------------|
G|--5--6--------5-|
D|--5--6--8--8--5-|
A|--3--6--8--8--3-|
E|--------6--6----|

Well here it is. Hope ya like it :)

| /  slide up
| \  slide down
| h  hammer-on
| p  pull-off
| ~  vibrato
| +  harmonic
| x  Mute note


*Lyrics*

*Verse*
18, you think you're free
To be what you wanna be
Have a job or 2 or 3, you'll say you're sorry
Don't try to run or fight
Ask how or when or why
Who cares what's wrong or right?
It's money that matters

*Pre-Verse *
Each day just like the next
We struggle on and on
In nightmares but we're still marching
Handcuffed to life again
Don't try, they'll only push you down
What's opportunity?
You've got what you wanted now

*Chorus*
How long till I'm my own?
Independence doesn't start when you leave home

*Verse 2*
Locked in, can't get out
Your cube is your new home
4 walls, no windows, no doors
Hancuffed to life again
Don't try, they'll only push you down
What's opportunity?
You've got what you wanted now!
Comments