Tsunami Bomb - Take The Reins Chords & Tabs

 

Take The Reins Chords & Tabs

Tsunami Bomb Chords & Tabs

Version: 2 Type: Tab 0 ratings
1 star 2 stars 3 stars 4 stars 5 stars
comments

Take The Reins Tab

Tsunami Bomb - Take the Reins

this band is sooo great. not sure about the chorus, if anyone knows just
add a correction or sumthing. hope its all good. just listen to see when
you play everything, its pretty easy to figure out.

BE SURE TO LOOK AT THE "ORDER TO PLAY"!!!

INTRO
e|------------------------|
B|------------------------|
G|------------------------|
D|-9--------9--7--6--4--7-|
A|-9--------9--7--6--4--7-|
E|-7--------7--5--4--2--5-|

INTRO 2
e|------------------------|
B|------------------------|
G|------------------------|
D|-9--------9-11-13-15-17-|
A|-9--------9-11-13-15-17-|
E|-7--------7--9-11-13-15-|

SOLO
e|------------------------------------------------|
B|------------------------------------------------|
G|------------------------------------------------|
D|------------------------------------------------|
A|-----9-7-5-4-----9-7-5-4-----9-7-4-5-5-9-7-10-9-|
E|-7-7---------5-5---------4-4--------------------|
[ Tab from: http://www.guitartabs.cc/tabs/t/tsunami_bomb/take_the_reins_tab_ver_2.html ]
VERSE
e|---------------------------------------------|
B|---------------------------------------------|
G|---------------------------------------------|
D|-9-9--9-9-7-7--7-7-6-6--6-6-4-4-4-4--7-7-7-7-|
A|-9-9--9-9-7-7--7-7-6-6--6-6-4-4-4-4--7-7-7-7-|
E|-7-7--9-9-5-5--5-5-4-4--4-4-2-2-2-2--5-5-5-5-|

VERSE 2
e|-----------------------------------------------------|
B|-----------------------------------------------------|
G|-----------------------------------------------------|
D|-9-9--9-9-11-11--11-11-13-13--13-13-4-4-4-4--7-7-7-7-|
A|-9-9--9-9-11-11--11-11-13-13--13-13-4-4-4-4--7-7-7-7-|
E|-7-7--9-9--9--9---9--9-11-11--11-11-2-2-2-2--5-5-5-5-|

PRE-CHORUS
e|-----------------|
B|-----------------|
G|--------9--------|
D|-10--9--9--7--7--|
A|-10--9--7--7--7--|
E|--8--7-----5--5--|

ORDER TO PLAY

INTRO
SOLO (x2)
VERSE (x2)
SOLO (x2)
VERSE (x2)
PRE-CHORUS
CHORUS (NOT TABBED)
VERSE
VERSE 2
PRE-CHORUS
CHORUS (NOT TABBED)
INTRO 2
PRE-CHORUS
CHORUS (NOT TABBED)
SOLO (x2)
PRE-CHORUS
Comments