Tsunami Bomb - Take The Reins Chords & Tabs

 

Take The Reins Chords & Tabs

Tsunami Bomb Chords & Tabs

Version: 1 Type: Bass Tab 0 ratings
1 star 2 stars 3 stars 4 stars 5 stars
comments

Take The Reins Bass Tab

itle: Take the Reins
Artist: Tsunami Bomb
Tabb BY: Daniel "Arnni" Greenwood
Comments: We don't ave a Bass tab for this song yet so i decided to do one.
I'm 78% correct i think but if this aint rite playb the same thing as the 
guitar does but only on top string :)(But this should be rite)
Thxs to Locker_42 (My band) And the rest of the peeps i know (Jokeing)

intro:
G|----------------------------------------------------------------|
D|----------------------------------------------------------------|
A|----------------13-13-13-13-13-13-13-13-12-12-12-12-12-12-12-12-|  
E|-8-8-8-8-8-8-8-8------------------------------------------------|

G|----------------------------------------------------------------|
D|----------------------------------------------------------------|
A|-8-8-8-8-10-10-10-10--------------------------------------------|    
E|----------------------------------------------------------------| x 2

Repeat intro

Verse
G|----------------------------------------------------------------|  
D|----------------------------------------------------------------|
A|----------------------------------------------------------------| x 2
E|-8-8-----8-8-8-6-6-----6-6-6-5-5-----5-5-5-3-3-3-6-6-6----------|
[ Tab from: http://www.guitartabs.cc/tabs/t/tsunami_bomb/take_the_reins_btab.html ]
Interlude
G|-----------|
D|-----------|
A|-3----6----|
E|----4----6-|

Chorus
G|-----------------------------------------------------------------|
D|-----------------------------------------------------------------|
A|-3-3-3-3-3-3-3-3-----------------------------------------6-6-6-6-|   
E|------------------4-4-4-4-4-4-4-4--------6-6-6-6-6-6-6-6---------|

G|-------------------|
D|-------------------|
A|--6-6-6-6-5-5-5-5--|                                                x 2
E|-------------------|
          

Interlude
G|-----------|
D|-----------|
A|-3----6----|
E|----4----6-|

Verse 2
G|----------------------------------------------------------------|  
D|----------------------------------------------------------------|
A|----------------------------------------------------------------| x 2
E|-8-8-----8-8-8-6-6-----6-6-6-5-5-----5-5-5-3-3-3-6-6-6----------|


Chorus
G|-----------------------------------------------------------------|
D|-----------------------------------------------------------------|
A|-3-3-3-3-3-3-3-3-----------------------------------------6-6-6-6-|   
E|------------------4-4-4-4-4-4-4-4--------6-6-6-6-6-6-6-6---------|

G|-------------------|
D|-------------------|
A|--6-6-6-6-5-5-5-5--|                                                x 2
E|-------------------|
Comments