Tsunami Bomb - Say It If You Mean It Chords & Tabs

 

Say It If You Mean It Chords & Tabs

Tsunami Bomb Chords & Tabs

Version: 2 Type: Bass Tab 0 ratings
1 star 2 stars 3 stars 4 stars 5 stars
comments

Say It If You Mean It Bass Tab

--------------------------------------------------------------------------------
                     Tsunami Bomb-say it if you mean it
--------------------------------------------------------------------------------
tabbed by:beyond and to all time i stand
album:the ultimate escape


this is what it sounds like to me so if its wrong blame my ears.enjoy.

INTRO

G---------------------------------
D---------------------------------
A-------5555------------5555-7777-
E-77---------5555-77--------------

VERSE
[ Tab from: http://www.guitartabs.cc/tabs/t/tsunami_bomb/say_it_if_you_mean_it_btab_ver_2.html ]
G-----------------------------------------------------------------
D-----------------------------------------------------------------
A-----------------5-5-5-5-5-5-5-5---------------------------------
E-7-7-7-7-7-7-7-7-----------------5-5-5-5-5-5-5-5-3-3-3-3-5-5-5-5-

CHORUS

G--------------------------------------------------------------------
D--------------------------------------------------------------------
A------------------5555555555555555----------------------------------
E-7777777777777777------------------5555555555555555-3-3-3-3-5-5-5-5-

BREAK

G-----------------------------------------------
D-----------------------------------------------
A------------555-5-555-5------------------------
E-33-3-333-3-------------555-5-555-5-777-7-5555-

thats it,simple.
Comments