Tsunami Bomb - Russian Roulette Chords & Tabs

 

Russian Roulette Chords & Tabs

Tsunami Bomb Chords & Tabs

Version: 1 Type: Tab 0 ratings
1 star 2 stars 3 stars 4 stars 5 stars
comments

Russian Roulette Tab

 I Have Put The Order At the Bottom

Intro and Chorus
E-----------------------              E----------------
B-----------------------              B----------------
G--------5-5------------  -  X4 then  G----------------
D--3-3--5-5--6-6--5--8--              D---3------------
A--3-3--3-3--6-6--5--8--              A---3------------
E--1-1-------4-4--3--6--              E---1------------

Verse
E------2-----2-----------------------------------------
B------3--------3--------------------------------------
G------4------------4----------------------------------
D------4-----------------------------------------------
A------------------------------------------------------
E------------------------------------------------------

Pre Chorus
Palm mute up to chorus
E------------------------------------------------------
B------------------------------------------------------
G--------5-5------------------------------------------- X4
D---3-3--5-5-6-6--5--8---------------------------------
A---3-3--3-3-6-6--5--8---------------------------------
E---1-1------4-4--3--6---------------------------------
[ Tab from: http://www.guitartabs.cc/tabs/t/tsunami_bomb/russian_roulette_tab.html ]
Fill
E------------------------------------------------------
B------------------------------------------------------
G---3-3-3--6-6-6--3----------3-3-3--6-6-6--9-----------
D---3-3-3--6-6-6--3----X3----3-3-3--6-6-6--9-----------
A---1-1-1--4-4-4--1----------1-1-1--4-4-4--7-----------
E------------------------------------------------------
Woah oh oh….

E-----2----------------2-------------------------------
B--------3----------3----------------------------------
G-----------4----4-------------------------------------
D--------------4---------------------------------------
A------------------------------------------------------
E------------------------------------------------------

E--------------------------------------------------------
B--------------------------------------------------------
G--------------------------------------------------------
D----3~ ----------------------3-3---3-3----3-3------3~ --
A----3~ ----------------------3-3---3-3----3-3------3~ --
E----1~ ----------------------1-1---1-1----1-1------1~ --

You better watch your back…..1…….....2..……..3

ORDER:
Intro
Verse
Muted pre Chorus
Chorus
Verse
Muted Pre chorus
Chorus
Fill
Chorus
Verse
Muted pre chorus
Chorus
 
i think its right but if not thats ok! :D  tabbed by KELSEY!!!
Comments