Tsunami Bomb - Not Forever Chords & Tabs

 

Not Forever Chords & Tabs

Tsunami Bomb Chords & Tabs

Version: 1 Type: Bass Tab 0 ratings
1 star 2 stars 3 stars 4 stars 5 stars
comments

Not Forever Bass Tab

Title: ...Not Forever
Artist: Tsunami Bomb
Tabbed by: banny      banny_skates@hotmail.com

> means repeat numerous times
~ means let it ring

INTRO
G|---------------------------------------------------------
D|---------------------------------------------------------  Comes in after 5 secs
A|-3-5-7---------------------------------------------------
E|---------------------------------------------------------

G|---------------------------------------------------------
D|---------------------------------------------------------  x3
A|---7-5-3---3-5-7-----------------------------------------
E|-5-------3-----------------------------------------------

G|---------------------------------------------------------
D|---------------------------------------------------------
A|---7-5-3---3-3-3-2---------------------------------------
E|-5-------3-----------------------------------------------

VERSE 1
G|---------------------------------------------------------
D|---------------------------------------------------------  x5
A|-8-8-8-7-7-7---------------------------------------------
E|-------------5>------------------------------------------

G|---------------------------------------------------------
D|---------------------------------------------------------
A|-8-8-8-7-7-7-3>------------------------------------------
E|---------------------------------------------------------

CHORUS 1
G|---------------------------------------------------------
D|---------------------------------------------------------
A|-2>-5>-8-8-8-7-7-7---------------------------------------
E|---------------------------------------------------------

CHORUS 2
G|---------------------------------------------------------
D|---------------------------------------------------------
A|-3>---0-2-3-5-5-3-3-5-7-8-10-14-14-12-12-----------------
E|----3----------------------------------------------------
[ Tab from: http://www.guitartabs.cc/tabs/t/tsunami_bomb/not_forever_btab.html ]
VERSE 1 x6
VERSE 2

CHORUS 1
CHORUS 2

CHORUS ENDING (BEFORE BRIDGE)
G|---------------------------------------------------------
D|---------------------------------------------------------
A|-8-7-8-7-5-4---------------------------------------------
E|---------------------------------------------------------

BRIDGE 1 (with the ooooooh-ing)
G|---------------------------------------------------------
D|---------------------------------------------------------  x4
A|-5>----3>-8>---------------------------------------------
E|----5>---------------------------------------------------

BRIDGE 2 (with Oob)
G|---------------------------------------------------------
D|---------------------------------------------------------  x3
A|-5>----8>------------------------------------------------
E|----5>---------------------------------------------------

BRIDGE ENDING
G|---------------------------------------------------------
D|---------------------------------------------------------
A|-0>------------------------------------------------------
E|---------------------------------------------------------

LEAD INTO 3rd (AND FINAL) VERSE
G|---------------------------------------------------------
D|---------------------------------------------------------
A|-8-8-8-7-7-7---------------------------------------------
E|-------------5-------------------------------------------

VERSE 1 x4
VERSE 2

CHORUS 1
CHORUS 2

CHORUS 3
G|---------------------------------------------------------
D|---------------------------------------------------------
A|-8-8-8-7-7-7-3>----5>-8-8-8-7-7-7------------------------
E|----------------3>---------------------------------------

CHORUS 2

ENDING
G|---------------------------------------------------------
D|---------------------------------------------------------
A|-8-8-8-7-7-7---------------------------------------------
E|-------------5~------------------------------------------
Comments