Tsunami Bomb - Lemonade Chords & Tabs

 

Lemonade Chords & Tabs

Tsunami Bomb Chords & Tabs

Version: 4 Type: Tab 0 ratings
1 star 2 stars 3 stars 4 stars 5 stars
comments

Lemonade Tab

verse:
e---------------------------------------------------------------- 
B---------------------------------------------------------------- 
G---------------------------------------------------------------- 
D---------------------------------------------------------------- 
A--2--2--2--2-2-6--6--6--6-6-------------------------------------
E----------------------------4--4--4--4-4-2--2--2-4-2------------
(repeat as needed)
[ Tab from: http://www.guitartabs.cc/tabs/t/tsunami_bomb/lemonade_tab_ver_4.html ]
chorus:
e---------------------------------------------------------------- 
B---------------------------------------------------------------- 
G------------------5-5-5-5-7-7-7-7-------------------------------
D--5-5-5-5-5-5-5-5-5-5-5-5-7-7-7-7-------------------------------
A--5-5-5-5-5-5-5-5-7-7-7-7-5-5-5-5-------------------------------
E--3-3-3-3-7-7-7-7-7-7-7-7-5-5-5-5-------------------------------
x4

solo:
e---------------------------------------------------------------- 
B--5--5\7---7\9/7--9-----4---------------------------------------
G--------5----------5--7----------------------------------------- 
D---------------------------------------------------------------- 
A---------------------------------------------------------------- 
E----------------------------------------------------------------
x2

order:
-verse
-chorus
-verse
-solo
-chorus 

i'm not sure about the chorus but the rest of it I'm pretty sure is right.
I don't know, sounds good to meh. 
rate it please.
Comments