Tsunami Bomb - Lemonade Chords & Tabs

 

Lemonade Chords & Tabs

Tsunami Bomb Chords & Tabs

Version: 1 Type: Tab 0 ratings
1 star 2 stars 3 stars 4 stars 5 stars
comments

Lemonade Tab

Tsunami Bomb-Lemonade

Hey guys this is my first tab. Its pretty much right, but if you find 
a mistake dont hesitate to correct me!!

*Tuning Standard


INTRO
 |---------------------------------------------------|
 |---------------------------------------------------|
 |---------------------------------------------------|
 |-7-5--7-5-----6-6--6-6-----5-5--5-5-----2----------|
 |-7-5--7-5-----6-6--6-6-----5-5--5-5-------2--------|
 |-7-5--7-5-----6-6--6-6-----5-5--5-5---------2------|
[ Tab from: http://www.guitartabs.cc/tabs/t/tsunami_bomb/lemonade_tab.html ]
CHORUS
 |---------------------------------------------------|
 |---------------------------------------------------|
 |-9-9-9-9-7-----5-4-----------------9-9-9-9-7-7-5-4-|
 |-9-9-9-9-7-----5-4-5-5-5-5-9-9-9-9-9-9-9-9-7-7-5-4-|
 |-7-7-7-7-5-----3-2-5-5-5-5-9-9-9-9-7-7-7-7-5-5-3-2-|
 |-------------------3-3-3-3-7-7-7-7-----------------|

SOLO
 |---------------------------------------------------|
 |---------------------------------------------------|
 |---------------------------------------------------|
 |-5--7-----9-7--9-----4-5-5--7----9-7--9-----4-5----|
 |------7----------5-7----------7---------5-7--------|
 |---------------------------------------------------|

OUTRO
 |---------------------------------------------------|
 |---------------------------------------------------|
 |---------------------------------------------------|
 |-5---------------------------------------5---------|
 |-5--twenty-one times. wait 15 sec. then--5---------|
 |-3---------------------------------------3---------|

Hope it helps. Much Luv
Comments