Tsunami Bomb - Lemonade Chords & Tabs

 

Lemonade Chords & Tabs

Tsunami Bomb Chords & Tabs

Version: 3 Type: Bass Tab 0 ratings
1 star 2 stars 3 stars 4 stars 5 stars
comments

Lemonade Bass Tab

Tabbed By : PeaRce
Couldn't be much simpler. Pretty good song too...

[ Tab from: http://www.guitartabs.cc/tabs/t/tsunami_bomb/lemonade_btab_ver_3.html ]
INTRO / VERSE
G|-----------------------------------------|
D|-5-5-5-55--9-9-9-99-2-2-2-22-0-0-0-00----|
A|-----------------------------------------|
E|-----------------------------------------|

CHORUS
G|------------------------------|-----|         |5-4--|
D|-5-5-5-5--9-9-9-9-2-2-2-2-0-0-|-----| or you  |-----|
A|------------------------------|3-2--| can use |-----|
E|------------------------------|-----|         |-----|

...and there you have it.
Comments