Tsunami Bomb - In This Together Chords & Tabs

 

In This Together Chords & Tabs

Tsunami Bomb Chords & Tabs

Version: 1 Type: Tab 0 ratings
1 star 2 stars 3 stars 4 stars 5 stars
comments

In This Together Tab

   
Band: Tsunami Bomb
Song: In This Together
Tabbed By: Jana

~:ring
...: Palm Mute

INTRO 4x
B|-xx----------------
G|-xx------4---------
D|-xx-77-4-4-77-9-5--
A|-xx-77-4-2-77-9-5--
E|-xx-55-2---55-7-3--
then...
e|---------------
B|---------------
G|-77777---------
D|-77777---4-5---
A|-99999---4-5---
E|-------0-2-3---

VERSE
e|------------------------------

B|------------------------------
G|-77777777-77777777-44444444-5-
D|-77777777-77777777-44444444-5-
A|-55555555-44444444-22222222-3-
E|------------------------------
   ..........................
[ Tab from: http://www.guitartabs.cc/tabs/t/tsunami_bomb/in_this_together_tab.html ]
e|-----------------------------------------------------
B|-----------------------------------------------------
G|-77777777-77777777-----------------------------------
D|-77777777-77777777--777777777-77777777-55555555------
A|-55555555-44444444--777777777-77777777-55555555------
E|--------------------999999999-55555555-33333333------
                      ...........................


PRE-CHORUS
e|-------------------------------------------
B|-------------------------------------------
G|-777777777777777-44444444-22222222---------
D|-777777777777777-44444444-22222222---------
A|-555555555555555-22222222-00000000---------
E|-------------------------------------------

INTRO
VERSE
PRE-CHORUS
INTRO

BRIDGE 4x
e|-----------------
B|-----------------
G|-----------------
D|-999999999---4-5-
A|-999999999---4-5-
E|-777777777-0-2-3-

INTRO

OUTRO 4x
e|--------------------------------
B|--------------------------------
G|-7777---------------------------
D|-7777-4444-7777-9999------------
A|-5555-4444-7777-9999------------
E|------2222-5555-7777------------
ENDING 3x
e|-----
B|-----
G|-----
D|-9-5-
A|-9-5-
E|-7-3-
Comments