Tsunami Bomb - 5150 Chords & Tabs

 

5150 Chords & Tabs

Tsunami Bomb Chords & Tabs

Version: 1 Type: Tab 0 ratings
1 star 2 stars 3 stars 4 stars 5 stars
comments

5150 Tab

Band: Tsunami Bomb
Song: 5150 (track 3)
Album: The Definitive Act

Tabbed by Chris Williams

Intro part 1 (once)
|---------------------|
|---------00000000000-|
|--------x44444455555-|
|-666x444-------------|
|-666x444-------------|
|-444x222-------------|
Intro Part 2 (once)
|------------------------|
|---------000000-0-0-0-0-|
|--------x44444416161616-|
|-666x444----------------|
|-666x444----------------|
|-444x222----------------|
Intro part 1 (once)
|---------------------|
|---------00000000000-|
|--------x44444455555-|
|-666x444-------------|
|-666x444-------------|
|-444x222-------------|
Intro Part 3 (once)
|---------------------|
|---------------------|
|--------44444444444--|
|-666x444444444xxxxx--|
|-666x44422222222222--|
|-444x222-------------|



Verse 1 Part 1 (once)
|--------------------|
|--------------------|
|--------------------|
|-566--522--566--522-|
|-566--522--566--522-|
|-344--300--344--300-|

Verse 1 Part 2 (*=play note till next part, once)
|--------------------|
|------000000000000*-|
|-4444-444444444444*-|
|-xxxx---------------|
|-2222---------------|
|--------------------|



Fill into chorus
|------------|
|------------|
|-------4444-|
|-444422xxxx-|
|-4444222222-|
|-222200-----|



Chorus 1 part 1 - Repeat 4 times
|---------------------|
|---------------------|
|-8888888888----------|
|-xxxxxxxxxx----------|
|-6666666666-7-6-4----|
|-----------------7-2-|

Fill into Verse 2 (once)
|---------------------|
|---------------------|
|-4444444-------------|
|-xxxxxxx-------------|
|-2222222-------------|
|---------------------|



Verse 2 Part 1 (once)
|--------------------|
|--------------------|
|--------------------|
|-566--522--566--522-|
|-566--522--566--522-|
|-344--300--344--300-|
[ Tab from: http://www.guitartabs.cc/tabs/t/tsunami_bomb/5150_tab.html ]
Verse 2 Part 2 (*=play note till next part, once)
|--------------------|
|------000000000000*-|
|-4444-444444444444*-|
|-xxxx---------------|
|-2222---------------|
|--------------------|



Fill into chorus (once)
|------------|
|------------|
|-------4444-|
|-444422xxxx-|
|-4444222222-|
|-222200-----|



Chorus 2 part 1 - Repeat 4 times
|---------------------|
|---------------------|
|-8888888888----------|
|-xxxxxxxxxx----------|
|-6666666666-7-6-4----|
|-----------------7-2-|

Fill into bridge (once)
|---------------------|
|---------------------|
|-4444444-------------|
|-xxxxxxx-------------|
|-2222222-------------|
|---------------------|



Bridge Part 1 (once)
|---------------------|
|---------------------|
|----------6666666666-|
|-4--6--2--xxxxxxxxxx-|
|-4--6--2--4444444444-|
|-2--4--0-------------|

Bridge Part 2 (Repeat 4 times)
|-------------|
|-------------|
|-----6--4-6--|
|-6-4-6--4-6-6|
|-6-4-4--2-4-6|
|-4-2--------4|



Verse 3 Part 2 (*=play note till next part, once)
|--------------------|
|------000000000000*-|
|-4444-444444444444*-|
|-xxxx---------------|
|-2222---------------|
|--------------------|

Fill into chorus (once)
|------------|
|------------|
|-------4444-|
|-444422xxxx-|
|-4444222222-|
|-222200-----|



Chorus 3 part 1 - Repeat 4 times
|---------------------|
|---------------------|
|-8888888888----------|
|-xxxxxxxxxx----------|
|-6666666666-7-6-4----|
|-----------------7-2-|

Fill into bridge (once)
|---------------------|
|---------------------|
|-4444444-------------|
|-xxxxxxx-------------|
|-2222222-------------|
|---------------------|



Outro (once)
|---------------------|
|---------------------|
|---------------------|
|-6666666446----------|
|-6666666446----------|
|-4444444224----------|


Any problems or corrections let me know chriswilliams666@gmail.com

Also visit the Tsunami Bomb Fansite @ www.takethereins.co.uk
Comments