Tsjuder - Ghoul Chords & Tabs

 

Ghoul Chords & Tabs

Tsjuder Chords & Tabs

Version: 1 Type: Bass Tab

Ghoul Bass Tab

   
Riff 1
G|-----------------------|
D|-----------------------|
A|-----------------------|x8
E|-000000111000222000333-|

G|-----------------------|
D|-----------------------|
A|-000000111000222000333-|x4
E|-----------------------|

G|-----------------------|
D|-----------------------|
A|-----------------------|x4
E|-000000111000222000333-|

Riff 2
G|-----------------------------|
D|-----------------------------|
A|-----------------------------|x4
E|-111111111111111111111111111-|

G|-----------------------------|
D|-----------------------------|
A|-----------------------------|x4
E|-000000000000000000000000000-|

G|-----------------------------|
D|-----------------------------|
A|-----------------------------|x4
E|-111111111111111111111111111-|

Riff 1

Riff 3 x2
G|--------------------------------------|
D|--------------------------------------|
A|----------888777777-------------------|
E|-555555555---------555555555111000000-|

G|------------------------------|
D|------------------------------|
A|------------------------------|x4
E|-0-0--0-0-0-6--0-0--0-0-0-3---|
[ Tab from: http://www.guitartabs.cc/tabs/t/tsjuder/ghoul_btab.html ]
G|--------------------------------------|
D|--------------------------------------|
A|--------------------------------------|
E|-111111111111111111000000000000000000-|

G|------------------------------------------------------|
D|------------------------------------------------------|
A|------------------------------------------------------|x4
E|-0--0-0--0-0-0--0-0-0-6-6--0--0-0--0-0-0--0-0-0-3-3---|

Riff 4 x4
G|-----------------------------------------|
D|-----------------------------------------|
A|-----------------------------------------|
E|-000000000333333333000000000444444333333-|

G|-----------------------------------------|
D|-----------------------------------------|
A|-----------------------------------------|
E|-0000000003333333330000000002-----1------|

Riff 2

During guitar solo
Riff 1
Riff 4 x4

Riff 3 x2

After riff 3
G|-----|
D|-----|
A|-----|
E|-1-0-|

Before riff 5
G|---------|
D|---------|
A|-3-----2-|
E|---------|

Riff 5 x4
G|-----------------------------------------|
D|-----------------------------------------|
A|-----------------------------------------|
E|-0--------3--------0--------4-----3------|

G|-----------------------------------------|
D|-----------------------------------------|
A|----------------------------3-----2------|
E|-0--------3--------0---------------------|

After riff 5
G|---|
D|---|
A|---|
E|-0-|