Trustcompany - War Is Over Chords & Tabs

 

War Is Over Chords & Tabs

Trustcompany Chords & Tabs

Version: 1 Type: Tab 0 ratings
1 star 2 stars 3 stars 4 stars 5 stars
comments

War Is Over Tab

Band- Trustcompany
Song- The War Is Over

Intro

Rhythm :

D[--------------------]
A[--------------------]
F[-5--7--------5--7---]
C[-5--7--2--0--5--7---]
G[-3--5--2--0--3--5---]
C[-------2--0---------] Eighth note strumming. (8 on each chord)

Lead:

D[------10-------10------]
A[-7h8------7h8-----7-8--]
F[-----7--------7--------]
C[-----------------------]
G[-----------------------]
C[-----------------------]  Repeat that a million times, and the last time dont repeat.. 
a 7 on the A to end.

Verse:

This was kind of hard to decifer to correct me if you think im wrong...

D[-----------------]
A[-----------------]
F[---------5-------]
C[-2~--2/--5--7--0-]
G[-2~--2/--3--7--0-]
C[-2~--2/-----7--0-] The 355 is an octave above what\'s supposed to be played i think.  
bass player plays the lower note, and the guitarist probably plays the 3rd or something, 
not sure... It will still sound right.  Im really not sure how the verses go, cause Im
tabbing these pretty fast, and it\'s frustrating me.  You can slide to 000 instead of the 
and it will still sound all right.
[ Tab from: http://www.guitartabs.cc/tabs/t/trustcompany/war_is_over_tab.html ]
Chorus:
Rhythm:
D[------------------------------------------------]
A[------------------------------------------------]
F[-5--7--9--7--5--7------9999------9999-----5--7--]
C[-5--7--9--7--5--7--77--xxxx--77--xxxx--7--5--7--]
G[-3--5--7--5--3--5--77--7777--77--7777--7--3--5--]
C[-------------------77--------77--------7--------]

Lead:
D[------10-------10------]
A[-7h8------7h8-----7-8--]
F[-----7--------7--------]
C[-----------------------]
G[-----------------------]
C[-----------------------]

Bridge: (Starting at \"I surrender..\" on the last chorus before the bridge)

D[--------------------------------|-------------------------|-------------------------------|
A[--------------------------------|-------------------------|-------------------------------|
F[-----9999------9999-----5--7----|-5-----5-----5-----7-----|-5-----5-----5-----7-----4--5--|
C[-77--xxxx--77--xxxx--7--5--7----|-5--2--5--2--5--2--7--7--|-5--2--5--2--5--2--7--7--4--5--|
G[-77--7777--77--7777--7--3--5----|-3--2--3--2--3--2--5--7--|-3--2--3--2--3--2--5--7--2--3--|
C[-77--------77--------7----------|----2-----2-----2-----7--|----2-----2-----2-----7--------|

Then back to the chorus...(starts after he says \"everything goes numb..\")

Chorus happens a couple times, and then

D[--------------------------------------]
A[--------------------------------------]
F[-5-5----------5-5---------5-5---------]
C[-5-5---2-2~---5-5---2-2---5-5---2-2~--]
G[-3-3---2-2~---3-3---2-2---3-3---2-2~--]
C[-------2-2~---------2-2---------2-2~--]
Comments