Trustcompany - Hover Chords & Tabs

 

Hover Chords & Tabs

Trustcompany Chords & Tabs

Version: 2 Type: Tab 0 ratings
1 star 2 stars 3 stars 4 stars 5 stars
comments

Hover Tab

Artist:Trustcompany
Song: Hover
Tuning: Half step down, Drop D
Tabbed by:FenderMan

This is a great Song By Trust Company.
Its Definately My faqvorite. I was playing
my guitar one night and I wanted to play 
something new. I didnt know any Trust
Company, so I tabbed three of their songs.
 

Intro:
-----------5---------5------------5------|    
--2---3-------2-3------2---3---------3---|
-----------------------------------------|	4 times
-----------------------------------------|
-----------------------------------------|
-----------------------------------------|
[ Tab from: http://www.guitartabs.cc/tabs/t/trustcompany/hover_tab_ver_2.html ]
Verse\Chorus:  x4           x4       
----------------------|-------------|
----------------------|-------------|    (Guitar 2 plays intro
----------------------|-------------|      first part of the verse.)
-4---7---5------------|-4~----0~----|
-2---5---5------------|-4~----0~----|    (On Chorus,Guitar 2 plays
---------5------------|-4~----0~----|    on first and second part)


-------------------------------------|-------------------|
-------------------------------------|-------------------|   
-------------------------------------|-------------------|    
-44-44---44-44-4\--00-00--00-00-0----|-0~----------------|
-44-44---44-44-4\--00-00--00-00-0----|-0~----------------|  
-44-44---44-44-4\--00-00--00-00-0----|-0~----------------| 

 (Guitar 2 plays intro for the first part of the verse)

At 2:19:	    x8                     x8
------------------------|----------|
------------------------|----------|  ( on the 8th, let the opens ring out)
------------------------|----------|
-4--4-------0-0-0-0-0-0-|-4-4-44-0-|
-4--4-------------------|-4-4-44-0-|
-4--4-------------------|-4-4-44-0-|

Interlude is the same as the Intro.

Through the whole song, they keep repeating these riffs where ever needed.
Comments