Trustcompany - Finally Chords & Tabs

 

Finally Chords & Tabs

Trustcompany Chords & Tabs

Version: 1 Type: Bass Tab 0 ratings
1 star 2 stars 3 stars 4 stars 5 stars
comments

Finally Bass Tab

   
Author/Artist: TRUSTcompany
Title: Finally
Album: The Lonely Position of Neutral
Transcribed by: Sub Sonic Ghost
Email: godsmyleader@hotmail.com

This is a really cool song.  TRUSTcompany is a really
good group with very invintive melodies.  Even though 
there chord structure is very simple to understand, it is 
very fun to listen and to play as well.  This song is very 
easy, pulling together only three main riffs with the 
occasional fill.  I've tabed out two versions of this tab. 
The first is a simple riff following the rhythm guitar.  The 
second is a slightly more complicated riff following the 
bass drum. (My personal fav).  Have Fun, and PEACE.

Tuning: Standard 4-string   E, A, D, G

Song Layout:

Intro/Verse 1: R1 (20x)
Pre Chorus: R2 (4x)
Chorus: R3 (3x) F1 (1x)
Post Chorus: R2 (4x)
Verse 2: R1 (12x)
Pre Chorus: R2 (4x)
Chorus: R3 (3x) F1 (1x)
Post Chorus/Bridge: R2 (2x) F2 (4x)
Chorus: R3 (4x)
Post Chorus/Outro:  R2 (5x) 
[ Tab from: http://www.guitartabs.cc/tabs/t/trustcompany/finally_btab.html ]
--------------------|----------------------|----------------------------------
--------------------|----------------------|----------------------------------
--------------7777--|----------------------|----------------------------------
--444444444444------|-0h4444--4444000------|----------------------------------
  Intro/Verse R1      Bridge/Pre Chorus R2                                    

----------------------------------|-------------------------------------------
----------------------------------|-------------------------------------------
----------------------------------|-----------------------4/776644------------
-44444444444444440000000000000000-|-4444444444444444000000--------------------
  Chorus R3                         Fill 1   F1                               


---------------------|--------------------------------------------------------
---------------------|--------------------------------------------------------
---------------------|--------------------------------------------------------
--0h4444-44444400000-|--------------------------------------------------------
Fill 2    F2                                                                 

Version 2  (Following Bass Drum)

Only the Chorus will change rhythm. 

------------------------------------------------------------------------------
------------------------------------------------------------------------------
------------------------------------------------------------------------------
-4-444-44-44-4444-0-000-00-00-0000--------------------------------------------
 Chorus R3
Comments