Trustcompany - Figure 8 Chords & Tabs

 

Figure 8 Chords & Tabs

Trustcompany Chords & Tabs

Version: 1 Type: Bass Tab 0 ratings
1 star 2 stars 3 stars 4 stars 5 stars
comments

Figure 8 Bass Tab

Band- Trust Company
Song- Figure 8

(Bass comes in 00:9)

Intro:
G:-----------------------------:
D:-----------------------------:    4X
A:--------22222----------------:
E:----0-2----------------------:

Verse:
G:----------------------------------------------------------:
D:----------------------------------------------------------:    4x
A:----------------------------0-0-0-0-0-0-0-----------------:  
E:----0-0-0-0-0-0-2-2-2-2-2-2---------------0-0-0-0-0-0-----:

Chorus:
G:----------------------------------------------------------:
D:----------------------------------------------------------:   2x
A:----------------0000000000000-2222222222222---------------:  
E:---000000000000-----------------------------0000000000000-:
[ Tab from: http://www.guitartabs.cc/tabs/t/trustcompany/figure_8_btab.html ]
Verse:
G:----------------------------------------------------------:
D:----------------------------------------------------------:    4x
A:----------------------------0-0-0-0-0-0-0-----------------:  
E:----0-0-0-0-0-0-2-2-2-2-2-2---------------0-0-0-0-0-0-----:

Chorus:
G:----------------------------------------------------------:
D:----------------------------------------------------------:    2x
A:----------------0000000000000-2222222222222---------------:  
E:---000000000000-----------------------------0000000000000-:

Bridge:
G:-----------------------------:
D:-----------------------------:    8X
A:--------22222----------------:
E:----0-2----------------------:

Chorus:
G:----------------------------------------------------------:
D:----------------------------------------------------------:    2x
A:----------------0000000000000-2222222222222---------------:  
E:---000000000000-----------------------------0000000000000-:

Outro:
G:-----------------------------:
D:-----------------------------:    8X
A:--------22222----------------:
E:----0-2----------------------:
Comments