Trustcompany - Downfall Chords & Tabs

 

Downfall Chords & Tabs

Trustcompany Chords & Tabs

Version: 7 Type: Tab 0 ratings
1 star 2 stars 3 stars 4 stars 5 stars
comments

Downfall Tab

   
Title: Downfall
Artist: Trust Company
Tabbed by: Patrick Lawrence Caasi (BSU-CN)
E-Mail: www.pennywise_018@yahoo.com
Tuning: Drop D


Intro: 
e|--------------------------------------------|
B|--------------------------------------------|
G|--------------------------------------------|
D|-0h22-0h2-0h2-0h2-2-0-0h22-0h2-0h2-3--------|
A|-0h22-0h2-0h2-0h2-2-0-0h22-0h2-0h2-3--------|
D|-0h22-0h2-0h2-0h2-2-00h22-0h2-0h2-3--------|
Repeat

Verse: 

Note: If You'll try to listen to the song, the verse is played only with base guitar
and drum beats, so I'm going to add guitar riffs for it for you to sing along with it.

   Fear in me so deep...
e|--------------------------------------------|
B|--------------------------------------------|
G|--------------------------------------------|
D|-2-2-x-x-2-2-x-2-2-x-2-2/3333---------------|
A|-2-2-x-x-2-2-x-2-2-x-2-2/3333---------------|
D|-2-2-x-x-2-2-x-2-2-x-2-2/3333---------------|

After the scream in the last part, play intro...

Step down!!!
e|--------------------------------------------|
B|--------------------------------------------|
G|--------------------------------------------|
D|-0h22-0h2-0h2-0h2-2-0-0h22-0h2-0h2-3--------|
A|-0h22-0h2-0h2-0h2-2-0-0h22-0h2-0h2-3--------|
D|-0h22-0h2-0h2-0h2-2-00h22-0h2-0h2-3--------|


Chorus:

	Can I break away...
e|--------------------------------------------|
B|--------------------------------------------|
G|-------------------7777---------------------|
D|-xxx-0h2222/5555-0-7777-7777--2-------------|
A|-xxx-0h2222/5555-0-5555-7777--2-------------|
D|-xxx-0h2222/5555-0------7777--2-------------|
Repeat


Intro: 
e|--------------------------------------------|
B|--------------------------------------------|
G|--------------------------------------------|
D|-0h22-0h2-0h2-0h2-2-0-0h22-0h2-0h2-3--------|
A|-0h22-0h2-0h2-0h2-2-0-0h22-0h2-0h2-3--------|
D|-0h22-0h2-0h2-0h2-2-00h22-0h2-0h2-3--------|


Verse 2: 
   Fall back on me...
e|--------------------------------------------|
B|--------------------------------------------|
G|--------------------------------------------|
D|-2-2-x-x-2-2-x-2-2-x-2-2/3333---------------|
A|-2-2-x-x-2-2-x-2-2-x-2-2/3333---------------|
D|-2-2-x-x-2-2-x-2-2-x-2-2/3333---------------|
[ Tab from: http://www.guitartabs.cc/tabs/t/trustcompany/downfall_tab_ver_7.html ]
Play Intro:
Step down!!!
e|--------------------------------------------|
B|--------------------------------------------|
G|--------------------------------------------|
D|-0h22-0h2-0h2-0h2-2-0-0h22-0h2-0h2-3--------|
A|-0h22-0h2-0h2-0h2-2-0-0h22-0h2-0h2-3--------|
D|-0h22-0h2-0h2-0h2-2-00h22-0h2-0h2-3--------|

Repeat Chorus:

Instrumental:

e|--------------------------------------------|
B|--------------------------------------------|
G|--------------------------------------------|
D|-2-2/5-0h2-5-0h2----------------------------|
A|-2-2.5-0h2-5-0h2----------------------------|
D|-2-2/5-0h2-5-0h2----------------------------|


Coda: 
Do Chorus:
   
  No one can see....
e|--------------------------------------------|
B|--------------------------------------------|
G|-------------------7777---------------------|
D|-xxx-0h2222/5555-0-7777-7777--2-------------|
A|-xxx-0h2222/5555-0-5555-7777--2-------------|
D|-xxx-0h2222/5555-0------7777--2-------------|


Lyrics:

Fear in me so deep it gets the best of me,
In the fear I fall, here it comes face to face with me,
Here I stand hold back so no one can see,
I feel these wounds, step down, step down,
step down.

(am I) Breaking Down
Can I break away
Push me away, make me fall,
Just to see, another side of me,
Push me away, you can see,
what I see, the other side of me.

Fall back on me, and I’ll be the strength I need,
to save me now, just come face to face with me,
stay in place you'll be the first to see, me heal these wounds,
step down, step down, step down, down

I’m not breaking, down
can I break away
push me away, make me fall,
just to see another side of me,
push me away you can see,
what I see, the other side of me

Go!

Fall, can I break away
push me away, make me fall,
just to see another side of me,
push me away you can see,
what I see, the other side of me

No one can see anything on the other side of me
I walk, I crawl, loosing everything and waiting for the downfall
No one can see everything on the other side of me
I walk, I crawl loosing everything on the downfall.
Downfall, Fall.



That's it! A powerful song, Just listen to the album so you can master the riffs. PEACE OUT YA'LL!!!

For my band mates- Mike, Albert and Christian.
Comments