Trustcompany - Downfall Chords & Tabs

 

Downfall Chords & Tabs

Trustcompany Chords & Tabs

Version: 2 Type: Bass Tab 0 ratings
1 star 2 stars 3 stars 4 stars 5 stars
comments

Downfall Bass Tab

Song: Downfall
Band: Trustcompany
Album: The Lonely Position Of Neutral
Tabbed By: SeepZ (hypercobra69@hotmail.com)
Tuning: GDAC#

This is probably one of the best songs I have ever heard, and my band's signature
cover. It's relatively easy, all you gotta do is get your timing straight. I've
made the tab as simple as I can. There are a few variations toward the end of the
song in the chorus and ending, but nothing major. Enjoy!

Intro: X4
 G-------------------------------------------------------------------|
 D-------------------------------------------------------------------|
 A-------------------------------------------------------------------|
C#-0-22-0-22-0-2-0-22-0-22-0-2-0-22-0-22-0-2-0-333333----------------|

Verse: X4
 G-------------------------------------------------------------------|
 D-------------------------------------------------------------------|
 A-------------------------------------------------------------------|
C#-0-22-0-22-0-2-0-22-0-22-0-2-0-22-0-22-0-2-0-333333----------------|

Pre Chorus 1:
 G-------------------------------------------------------------------|
 D-------------------------------------------------------------------|
 A-------------------------------------------------------------------|
C#-0-22-0-22-0-2-0-22-0-22-0-2-0-22-0-22-0-2-0-333333----------------|

 G-------------------------------------------------------------------|
 D-------------------------------------------------------------------|
 A-------------------------------------------------------------------|
C#-0-22-0-22-0-2-0-22-0-22-0-2-0-22-0-22-0-2-0-XX--------------------|

Chorus: X2

 G--------------------------------------------------------------------|
 D--------------------------------------------------------------------|
 A------------------3333333333333333----------------------------------|
C#2222222222222222------------------5555555555555555-0000000000000000-|

Pre Verse: X2
[ Tab from: http://www.guitartabs.cc/tabs/t/trustcompany/downfall_btab_ver_2.html ]
 G-------------------------------------------------------------------|
 D-------------------------------------------------------------------|
 A-------------------------------------------------------------------|
C#-0-22-0-22-0-2-0-22-0-22-0-2-0-22-0-22-0-2-0-333333----------------|

Verse: X4

 G-------------------------------------------------------------------|
 D-------------------------------------------------------------------|
 A-------------------------------------------------------------------|
C#-0-22-0-22-0-2-0-22-0-22-0-2-0-22-0-22-0-2-0-333333----------------|

Pre Chorus 2:

 G-------------------------------------------------------------------|
 D-------------------------------------------------------------------|
 A-------------------------------------------------------------------|
C#-22------2----22------0233-22------2-----22------------------------|

Chorus: X2

 G--------------------------------------------------------------------|
 D--------------------------------------------------------------------|
 A-----------------3333333333333333-----------------------------------|
C#2222222222222222------------------5555555555555555-0000000000000000-|

Bridge: X4

 G-------------------------------------------------------------------|
 D-------------------------------------------------------------------|
 A----3---3---3------------------------------------------------------|
C#-0-2--02--02-------------------------------------------------------|

Chorus: X4

 G--------------------------------------------------------------------|
 D--------------------------------------------------------------------|
 A------------------3333333333333333----------------------------------|
C#2222222222222222------------------5555555555555555-0000000000000000-|

Ending:

 G-------------------------------------------------------------------|
 D-------------------------------------------------------------------|
 A-------------------------------------------------------------------|
C#-22------2----22------023-22------2----22------0-3-----------------|

That's it. During the final chorus there are a few basic steps and slides and such,
but it's very easy to figure it out. Hope this helps, seeing as though the other tab
is hopelessly wrong...
Comments