Trustcompany - Downfall Chords & Tabs

 

Downfall Chords & Tabs

Trustcompany Chords & Tabs

Version: 1 Type: Bass Tab 0 ratings
1 star 2 stars 3 stars 4 stars 5 stars
comments

Downfall Bass Tab

TrustCompany - Downfall
by Alex Huth

G|----------------------------------------------------
D|----------------------------------------------------
A|-4-6-6-4-6---6-6--4-6-6-4-6--6-6-4-6-6-4-6--6-6-----
E|----------------------------------------------------

G|----------------------------------------------------
D|----------------------------------------------------
A|-7-7-7-7-7-7-7-7------------------------------------
E|----------------------------------------------------

Play that through intro/verse.


Chorus:
G|----------------------------------------------------
D|----------------------------------------------------
A|-6-6-6-6-6-6-6-6--2-2-2-2-2-2-2-2-------------------
E|-----------------------------------2-2-2-2-2-2-2-2--
[ Tab from: http://www.guitartabs.cc/tabs/t/trustcompany/downfall_btab.html ]
G|----------------------------------------------------
D|----------------------------------------------------
A|-4-4-4-4-4-4-4-4------------------------------------
E|----------------------------------------------------

There are a couple of little bridges in here where you
just play 4,6,7 on the A string for a bit, then there's
a big interlude..

G|------4------4-------4------------------------------
D|----------------------------------------------------
A|-4-6----4-6-----4-6---------------------------------
E|----------------------------------------------------

Repeat that for a bit, then go back to the chorus, and
the song ends with a...

G|----------------------------------------------------
D|----------------------------------------------------
A|-6-6---6---6-6---6---6-6---6---6-6--4---7-----------
E|----------------------------------------------------

Tada! Have fun. (it's not perfect, but hey)
Comments