Trustcompany - Deeper Into You Chords & Tabs

 

Deeper Into You Chords & Tabs

Trustcompany Chords & Tabs

Version: 2 Type: Tab 0 ratings
1 star 2 stars 3 stars 4 stars 5 stars
comments

Deeper Into You Tab

   
TRUSTcompany "deeper into you"
tabbed by gerardo saldaņa

Drop D tuning-1/2 step down

.  _pm 
x  _stucato
< >_trill
b  _bend

Intro:
Guitar 1
eb-------------------------------------|  
Bb-------------------------------------|
Gb-------0-------0-------0-------0-----|
Db-----4-------4-------4-------4-------|
Ab--3----------------------------------|
Db----------2-------5-------0----------|

Guitar 2
eb-----------|
Bb----7-8----|
Gb--7--------|
Db-----------|
Ab-----------|
Db-----------|

Guitar 1
eb-------------------------------------|  
Bb-------------------------------------|
Gb-------0-------0-------0-------0-----|
Db-----4-------4-------4-------4-------|
Ab--3----------------------------------|
Db----------2-------5-------0----------|

Guitar 2
eb---------------------|
Bb--7b-7b-7b-7b--------|
Gb---------------------|
Db---------------------|
Ab---------------------|
Db---------------------|

Guitar 1 
eb-----||----||----||----|
Bb-----||----||----||----|
Gb-----||----||----||----|
Db--10-||--2-||--5-||--0-|
Ab--10-||--2-||--5-||--0-|
Db--10-||--2-||--5-||--0-|

Guitar 2
eb--14-15-17-14-15-17-14-15-17-14----------14-------|
Bb--------------------------------15----15----15----|
Gb-----------------------------------14-------------|
Db--------------------------------------------------|
Ab--------------------------------------------------|
Db--------------------------------------------------|

Guitar 2
eb--14-15-17-14-15-17-14-15-17-----------|
Bb------------------------------15b------|
Gb---------------------------------------|
Db---------------------------------------|
Ab---------------------------------------|
Db---------------------------------------|

Guitar 1 			
eb----------|
Bb----------|
Gb-x-x-x-x--|
Db-x-x-x-x--|
Ab-x-x-x-x--|
Db----------|

				
Guitar 1 							
eb--------------------||----------||eb-------------------||----------------|
Bb--------------------||----------||Bb-------------------||----------------|
Gb---------4----------||-x-x-x-x--||Gb--------4----------||-<4>-<4>-<4>-<4>|
Db---0--2--4--2--0--2-||-x-x-x-x--||Db--0--2--4--2--0--2-||-<4>-<4>-<4>-<4>|
Ab---0--2--2--2--0--2-||-x-x-x-x--||Ab--0--2--2--2--0--2-||-<2>-<2>-<2>-<2>|
Db---0--2-----2--0--2-||----------||Db--0--2-----2--0--2-||----------------|
                
							    
eb--------------------||----------||eb--------------------||----------|
Bb--------------------||----------||Bb--------------------||----------|
Gb---------4----------||-x-x-x-x--||Gb---------4----------||-x-x-x-x--|
Db---0--2--4--2--0--2-||-x-x-x-x--||Db---0--2--4--2--0--2-||-x-x-x-x--|
Ab---0--2--2--2--0--2-||-x-x-x-x--||Ab---0--2--2--2--0--2-||-x-x-x-x--|
Db---0--2-----2--0--2-||----------||Db---0--2-----2--0--2-||----------| 

[ Tab from: http://www.guitartabs.cc/tabs/t/trustcompany/deeper_into_you_tab_ver_2.html ]
Verse:
eb-----------------------------------------------------------|
Bb-----------------------------------------------------------|
Gb-----------------------------------------------------------|
Db--2-2--2-2--2-2--10-10-10-10-10-10--0-0--2-2--2-2--2-2--0--|
Ab--2-2--2-2--2-2--10-10-10-10-10-10--0-0--2-2--2-2--2-2--0--|
Db--2-2--2-2--2-2--10-10-10-10-10-10--0-0--2-2--2-2--2-2--0--|

Guitar 2
eb-----------------------------------------|
Bb-----------------------------------------|
Gb-----------------------------------------|
Db-----------------------------------------|
Ab--99--1010--99--77----99--1010--99-------|
Db------------------------------------1212-|
  pm·····························.........
   
Guitar 1
eb--------------------------------|
Bb--------------------------------|
Gb--------------------------------|
Db--0-0-0-0-0---------------------|
Ab--0-0-0-0-0---------------------|
Db--0-0-0-0-0---------------------|

Chorus:
Guitar 1 
eb---------------|
Bb---------------|
Gb---------------|2x
Db--10--2--5--0--|
Ab--10--2--5--0--|
Db--10--2--5--0--|

Guitar 2
eb--14-15-17-14-15-17-14-15-17-14----------14--------|
Bb--------------------------------15----15----15-----|
Gb-----------------------------------14--------------|
Db---------------------------------------------------|
Ab---------------------------------------------------|
Db---------------------------------------------------|

Guitar 2
eb--14-15-17-14-15-17-14-15-17-----------|
Bb------------------------------15b------|
Gb---------------------------------------|
Db---------------------------------------|
Ab---------------------------------------|
Db---------------------------------------|

Bridge:
Guitar 1 							
eb--------------------||----------||eb-------------------||----------------|
Bb--------------------||----------||Bb-------------------||----------------|
Gb---------4----------||-x-x-x-x--||Gb--------4----------||-<4>-<4>-<4>-<4>|
Db---0--2--4--2--0--2-||-x-x-x-x--||Db--0--2--4--2--0--2-||-<4>-<4>-<4>-<4>|
Ab---0--2--2--2--0--2-||-x-x-x-x--||Ab--0--2--2--2--0--2-||-<2>-<2>-<2>-<2>|
Db---0--2-----2--0--2-||----------||Db--0--2-----2--0--2-||----------------|
|                
							    
eb--------------------||----------||eb-------------------||----------|
Bb--------------------||----------||Bb-------------------||----------|
Gb---------4----------||-x-x-x-x--||Gb---------4---------||-x-x-x-x--|
Db---0--2--4--2--0--2-||-x-x-x-x--||Db--0--2--4--2--0--2-||-x-x-x-x--|
Ab---0--2--2--2--0--2-||-x-x-x-x--||Ab--0--2--2--2--0--2-||-x-x-x-x--|
Db---0--2-----2--0--2-||----------||Db--0--2-----2--0--2-||----------| 


eb-------------------------------|
Bb-------------------------------|
Gb-------------------------------|2x
Db--2-2--2--2-2---2---2---2-2----|
Ab--2-2--2--2-2---2---2---2-2----|
Db--2-2--2--2-2---2---2---2-2----|

Outro 
eb------------------|
Bb------------------|
Gb------------------|6x
Db--2-2-2-2-2-2-----|
Ab--2-2-2-2-2-2-----|
Db--2-2-2-2-2-2-----|



thank you for reading my tab,enjoy it.
for corrections write to tato_2626@hotmail.com
Comments