Trustcompany - Deeper Into You Chords & Tabs

 

Deeper Into You Chords & Tabs

Trustcompany Chords & Tabs

Version: 1 Type: Bass Tab 0 ratings
1 star 2 stars 3 stars 4 stars 5 stars
comments

Deeper Into You Bass Tab

Yeah, its late at night. this is basically it. play it straight through. like i have 
i didnt tab out the ending. but u'll get it, its easy.

 G|------------------------------------------------------------------------|
 D|------------------------------------------------------------------------|
 A|-2-----------2------------2222222-------------------------22222222------|
Db|----2--5--0-----2--5--0----------0222222205555555500000000--------02222-|

 G|-----------------------------------------------------------------------|
 D|-----------------------------------------------------------------------|
 A|-------------------------2----------2----------2----------2------------|
Db|-22205555555500000000-02--2-0-22-02--2-0-22-02--2-0-22-02--2-0-22------|

 G|-----------------------------------------------------------------------|
 D|-----------------------------------------------------------------------|
 A|----------------222222222----------------------------------------------|
Db|-22---22---22------------000000022---22---22---0000000000000000--------|

 G|-----------------------------------------------------------------------|
 D|-----------------------------------------------------------------------|
 A|-2222222-------------------------2222222-------------------------------|
Db|--------0222222205555555500000000-------0222222205555555500000000------|
[ Tab from: http://www.guitartabs.cc/tabs/t/trustcompany/deeper_into_you_btab.html ]
 G|-----------------------------------------------------------------------|
 D|-----------------------------------------------------------------------|
 A|----------------222222222----------------------------------------------|
Db|-22---22---22------------000000022---22---22---0000000000000000--------|

 G|-----------------------------------------------------------------------|
 D|-----------------------------------------------------------------------|
 A|-2222222-------------------------2222222-------------------------------|
Db|--------0222222205555555500000000-------0222222205555555500000000------|

 G|-----------------------------------------------------------------------|
 D|-----------------------------------------------------------------------|
 A|----2----------2----------2----------2---------------------------------|
Db|-02--2-0-22-02--2-0-22-02--2-0-22-02--2-0-22-22-2-2-2--2--2-2-2-22-2-2-|

 G|-----------------------------------------------------------------------|
 D|-----------------------------------------------------------------------|
 A|-2222222-------------------------2222222-------------------------------|
Db|--------0222222205555555500000000-------0222222205555555500000000------|

 G|-----------------------------------------------------------------------|
 D|-----------------------------------------------------------------------|
 A|-2222222-------------------------2222222-------------------------------|
Db|--------0222222205555555500000000-------0222222205555555500000000------|
Comments