Trust Company - Running From Me Chords & Tabs

 

Running From Me Chords & Tabs

Trust Company Chords & Tabs

Version: 2 Type: Tab 0 ratings
1 star 2 stars 3 stars 4 stars 5 stars
comments

Running From Me Tab

   
Trust Company
Running From Me

C#,G#,C#,F#,A#,D#

This is my first tab. I decided to make a tab because this is an awesome song.. and no one has made any effort to tab it out.  
Trust me... I know what im doing.

THIS TAB ONLY APPLIES TO GUITAR 1

Intro:  
------------------------------------------------------------------------------------------------------------------------------------------------
------------------------------------------------------------------------------------------------------------------------------------------------
------------------------------------------------------------------------------------------------------------------------------------------------
----------0----0------0-------------------0-----0------0-----------0----0------0---------0----0-------0-------------0----0------0----
------3-----3----3---------------------3----3-----3-------------3----3----3-----------3----3----3----------------3----3----3---------
--0------------------0---------------0----------------0--------0---------------0------0---------------0----------3---------------3-------
Intro is Palm Muted


------------------------------------------------------------------------------------------------------------------------------------------------
------------------------------------------------------------------------------------------------------------------------------------------------
------------------------------------------------------------------------------------------------------------------------------------------------
------0----0------0-----------0----0------0-----------------0----0------0----------------------------------------------------------------
---3----3----3-------------3----3----3-------------------3----3----3-----------------------3--5--3--5--3--5-------------------------
3---------------3--------0---------------0--------------0---------------0-----------------0-------------------0--------------------------
                                                                                                    this is done 4 times, then


-----------------------------------------------------------------------------------------------------------------------------------------------
-----------------------------------------------------5---6------------------------------------------------------------------------------------
-------7----------------------------------------this is being bend... extremely---------------------------------------------------
-------7---------------------------------------------------------------------------------------------------------------------------------------
-------5--------------------------------------------------------------------------------------------------------------------------------------
------------------------------------------------------------------------------------------------------------------------------------------------
guitar 1 plays              i think guitar 2 is playing this..                           ALL OF THIS IS DONE TWICE


Verse:
------------------------------------------------------------------------------------------------------------------------------------------------
------------------------------------------------------------------------------------------------------------------------------------------------
-------7--------------------------3----------------------------------------------7--------------------------------------------------------------
-------7--------------------------3----------------------------------------------7-------------------------------------------------------------
-------5--------------------------1----------------------------------------------5--------------------------------------------------------------
------------------------------------------------------------------------------------------------------------------------------------------------
..say a prayer for me...  cuz i can barley breathe...         i'm stumbling...      *I THINK U GET IT... THEY SWITCH*

[ Tab from: http://www.guitartabs.cc/tabs/t/trust_company/running_from_me_tab_ver_2.html ]
Pre Chorus:
------------------------------------------------------------------------------------------------------------------------------------------------
------------------------------------------------------------------------------------------------------------------------------------------------
-----------------------------------------------------------------------------------------------------------------------------------------------
-----------------------------------------------------------------------------------------------------------------------------------------------
------3h5---------3h5--------3h5--------3h5-------------------LISTEN TO THE SONG FOR THE EXACT NUMBER
---0------------------------------------------------------------------OF TIMES THIS IS PLAYED


Chorus:
------------------------------------------------------------------------------------------------------------------------------------------------
------------------------------------------------------------------------------------------------------------------------------------------------
----------7--------------------------------------------------------------------------5------------------------------------------------------------
----------7--------------------------------------------------------------------------5------------------------------------------------------------
----------5--------------------------------------------------------------------------3------------------------------------------------------------
------------------------------------------------------------------------------------------------------------------------------------------------
...Am I running from you...                        ...am i running from me...

Repeat prechorus and chorus...

Next... Play the verse.. LISTEN TO THE SONG.
THEN PRECHORUS..
THEN CHORUS.. THEN THIS..


Bridge:
------------------------------------------------------------------------------------------------------------------------------------------------
------------------------------------------------------------------------------------------------------------------------------------------------
------------------------------------------------------------------------------------------------------------------------------------------------
------------------------------------------------------------------------------------------------------------------------------------------------
------------------------------------------------------------------------------------------------------------------------------------------------
------0----------5555555-----------IT REPEATS ITELSF A FEW TIMES...-----------------------------------------
                  ^^^^^^^^^^
                  these are harmonics


THEN.. THE HYPE STUFF STARTS
------------------------------------------------------------------------------------------------------------------------------------------------
------------------------------------------------------------------------------------------------------------------------------------------------
------------------------------------------------------------------------------------------------------------------------------------------------
------------------------------------------------------------------------------------------------------------------------------------------------
----3--5-----3--5-----3--5----3--3--5----------------------------------------------------------------------------------------------------
-0---------0--------0-------------------------------------------------------------------------------------------------------------------------
This is played w/o distortion       ...      then play the same riff w/ distortion



THEN PLAY THE CHORUS, PRECHORUS, THEN CHORUS AGAIN  .. (JUST LISTEN TO IT)



THE SCREAMING AT THE END....
------------------------------------------------------------------------------------------------------------------------------------------------
------------------------------------------------------------------------------------------------------------------------------------------------
----------7--------------------------------------------------------------------------------------------------------------------------------------
----------7--------------------------------------------------------------------------------------------------------------------------------------
----------5--------------------------------------------------------------------------------------------------------------------------------------
------------------------------------------------------------------------------------------------------------------------------------------------
..CAN'T TAKE THIS...


QUESTIONS OR COMMENTS???
GOOD OR BAD??

EMAIL ME AT    Libertybellcdr@yahoo.com

Comments