Trust Company - Hover Chords & Tabs

 

Hover Chords & Tabs

Trust Company Chords & Tabs

Version: 1 Type: Tab 0 ratings
1 star 2 stars 3 stars 4 stars 5 stars
comments

Hover Tab

Band:Trustcompany
Album:The Lonley Position Of Neutral
Song:Hover
website:www.geocities.com/creed989

~=ring

Tunning: Drop D, Down half-a-step

INTRO: Guitar 1
e---------------------------------------------
b---------------------------------------------
g--------14----------14--------------14-------
d--11-12------11-12--------11---12---------12-
a---------------------------------------------
D---------------------------------------------
                
Chorus (# of strokes NOT indicated)

Guitar 1
e-----------------
b-----------------
g-----------------
d--9-----12-----5-
a--9-----12-----5-
D--9-----12-----5-
[ Tab from: http://www.guitartabs.cc/tabs/t/trust_company/hover_tab.html ]
Guitar 2
e---------------------------------------
b---------------------------------------
g--------14----------14--------------14-
d--11-12------11-12--------11---12------
a---------------------------------------
D---------------------------------------

1st Verse (# of strokes NOT indicated)
e------------
g------------
b------------
d---4~----7~-
a---4~----5~-
D---4~-------

2nd Verse
----------
----------
----------
-4~----0~-
-4~----0~-
-4~----0~-

Bridge: (after verses, listen to this part carefully)
e----------------------------------
g----------------------------------
b----------------------------------
d--4-4-4-4---0-0-0-0---4-4-4-4---0-
a--4-4-4-4---0-0-0-0---4-4-4-4---0-
D--4-4-4-4---0-0-0-0---4-4-4-4---0-

**Chorus**

Bridge 2:(about 7 times)
e---------
g---------
b---------
d--444----
a--444--5-
D--444----

THEN (# of times NOT indicated)
e-----------
g-----------
b-----------
d--444444-0-
a--444444-0-
D--444444-0-
Comments