Trust Company - Downfall Chords & Tabs

 

Downfall Chords & Tabs

Trust Company Chords & Tabs

Version: 5 Type: Tab 0 ratings
1 star 2 stars 3 stars 4 stars 5 stars
comments

Downfall Tab

   
#----------------------------------PLEASE NOTE--------------------------------#
#This file is the author's own work and represents their interpretation of the#
#song. You may only use this file for private study, scholarship, or research.#
#-----------------------------------------------------------------------------#
#-- File created with Instab - http://www.pconline.com/~smcarey/instab.html --#
#-----------------------------------------------------------------------------#

Author/Artist: Trust Company
Title: Downfall
Album: The Lonely Position of Neutral
Transcribed by: Nick Pecoraro
Email: wetwilly543@yahoo.com

Hey everyone. As of 7/8/02, their CD hasn't been released and I'm the only one
 who's submitted a tab. I think it's at least 97% perfect. Of couse, the timing
 isn't exact. Tuning is as follows: C-G-C-F-A-D. Regular ol' Drop D will sound
 ok as long as you don't play along with the CD. Njoy Trust Company-

-|----------------------------------------------------------------|-----------
-|----------------------------------------------------------------|-----------
-|--------------------------------------------------------5-5-5-5-|-----------
-|--------------------------------------------------------x-x-x-x-|-----------
-|-2--0-2p0h2---0h2---0-2p0h2---0h2---0-2p0h2---0h2---0h2-3-3-3-3-|-----------
-|-2--0-2p0h2---0h2---0-2p0h2---0h2---0-2p0h2---0h2---0h2---------|-----------
 Intro x4                                                                     

-|---------------------------------------------------------------|------------
-|---------------------------------------------------------------|------------
-|-9-9-9-9-9-9-9-9-9-9-9-9-9-9-9-9-9-9-9-9-9-9-9-9-9-9-9-9-9-9-9-|------------
-|-x-x-x-x-x-x-x-x-x-x-x-x-x-x-x-x-x-x-x-x-x-x-x-x-x-x-x-x-x-x-x-|------------
-|-7-7-7-7-7-7-7-7-7-7-7-7-7-7-7-7-7-7-7-7-7-7-7-7-7-7-7-7-7-7-7-|------------
-|---------------------------------------------------------------|------------
   Guitar 2 plays this after repeating the intro twice (w/ wah)               
[ Tab from: http://www.guitartabs.cc/tabs/t/trust_company/downfall_tab_ver_5.html ]
-|---------|-------------------------------------------------|----------------
-|---------|-------------------------------------------------|----------------
-|---------|-4-4-4-4-4-4-5-5-5-5-5-5-7-7-7-7-7-7-7-7-7-7-7-7-|----------------
-|-5^5^5^5^|-2-2-2-2-2-2-5-5-5-5-5-5-5-5-5-5-5-5-7-7-7-7-7-7-|----------------
-|-5^5^5^5^|-2-2-2-2-2-2-3-3-3-3-3-3-5-5-5-5-5-5-5-5-5-5-5-5-|----------------
-|---------|-2-2-2-2-2-2-------------5-5-5-5-5-5-------------|----------------
   After verse, repeat the Intro riff twice, then this is the Chorus          

-|----------------------------------------------------------------------------
-|----------------------------------------------------------------------------
-|-----7-7-7-7-----7-7-7-7------7-7-7-7---------7-7-7-7----7-7-7-7-----7-7-77-
-|-----x-x-x-x-----x-x-x-x------x-x-x-x---------x-x-x-x----x-x-x-x-----x-x-xx-
-|-2-2-5-5-5-5--2--5-5-5-5--2-2-5-5-5-5-0-3-2-2-5-5-5-5--2-5-5-5-5-2-2-5-5-55-
-|-2-2----------2-----------2-2---------0-3-2-2----------2---------2-2--------
   Play intro riff once, then it's the verse, then this.(Guitar 2 is the 7/5) 

-|-----------------|-----------------|----------------------------------------
-|-----------------|-----------------|----------------------------------------
-|-----------------|-----------------|----------------------------------------
-|-----------------|-----------------|----------------------------------------
-|-----3-----3---3-|-----3-----3---3-|----------------------------------------
-|-0-2---0h2---2---|-0-2---0h2---2---|----------------------------------------
 Play the chorus twice, then this clean part                                  

-|-----------------|------|--------------------|------------------------------
-|-----------------|------|--------------------|------------------------------
-|-----------------|------|--------------------|------------------------------
-|-----5-----5---5-|-x3---|-----5-----5^5^5^5^-|-x1---------------------------
-|-0-2-3-0h2-3-2-3-|------|-0-2-3-0h2-5^5^5^5^-|------------------------------
-|-0-2---0h2---2---|------|-0-2---0h2----------|------------------------------
   Then, with distortion                                                      

-|----------------------------------------------------------------------------
-|----------------------------------------------------------------------------
-|-----7-7-7-7---7-7-7-7-----7-7-7-7---------7-7-7-7---7-7-7-7-----7-7-7-7----
-|-----x-x-x-x---x-x-x-x-----x-x-x-x---------x-x-x-x---x-x-x-x-----x-x-x-x----
-|-2-2-5-5-5-5-2-5-5-5-5-2-2-5-5-5-5-0-3-2-2-5-5-5-5-2-5-5-5-5-2-2-5-5-5-5-03-
-|-2-2---------2---------2-2---------0-3-2-2---------2---------2-2---------03-
   Play the chorus 4X,then play this. I ran out of room at the end.           

Comments