Trust Company - Downfall Chords & Tabs

 

Downfall Chords & Tabs

Trust Company Chords & Tabs

Version: 4 Type: Tab 0 ratings
1 star 2 stars 3 stars 4 stars 5 stars
comments

Downfall Tab

Artist: Trust Company
Song: Downfall
Tabbed by: Greg Vautour
Album: The lonely position of neutral
Date: July 8 2002

This is one of the best songs i have ever heard from the best band i have ever heard. the cd doesn't come out until july 27 but this tab is 100%.

I think this song is in C# but you could play it in drop d.

Intro
C#-----------------------------------------------------------------------------------------
G#-----------------------------------------------------------------------------------------
E -----------------------------------------------------7-7-7-7-7-7-7-7---------------------
B ---2-4-4--2-4-4--2-4-4--2-4-4--2-4-4--2-4-4--2-4-4---7-7-7-7-7-7-7-7---------------------(Repeat 4 times)
F#---2-4-4--2-4-4--2-4-4--2-4-4--2-4-4--2-4-4--2-4-4---5-5-5-5-5-5-5-5---------------------
C#---0-2-2--0-2-2--0-2-2--0-2-2--0-2-2--0-2-2--0-2-2---------------------------------------


Verse 1 (no guitar here)


Pre-chorus
C#-----------------------------------------------------------------------------------------
G#-----------------------------------------------------------------------------------------
E -----------------------------------------------------7-7-7-7-7-7-7-7---------------------
B ---2-4-4--2-4-4--2-4-4--2-4-4--2-4-4--2-4-4--2-4-4---7-7-7-7-7-7-7-7---------------------
F#---2-4-4--2-4-4--2-4-4--2-4-4--2-4-4--2-4-4--2-4-4---5-5-5-5-5-5-5-5---------------------
C#---0-2-2--0-2-2--0-2-2--0-2-2--0-2-2--0-2-2--0-2-2---------------------------------------


C#-----------------------------------------------------------------------------------------
G#-----------------------------------------------------------------------------------------
E -----------------------------------------------------------------------------------------
B ---2-4-4--2-4-4--2-4-4--2-4-4--2-4-4--2-4-4--2-4-4---------------------------------------
F#---2-4-4--2-4-4--2-4-4--2-4-4--2-4-4--2-4-4--2-4-4---------------------------------------
C#---0-2-2--0-2-2--0-2-2--0-2-2--0-2-2--0-2-2--0-2-2---------------------------------------


Chorus
C#-----------------------------------------------------------------------------------------
G#--------------------------------------------------------***********----------------------
E --------------------7-7-7-7-7-7-7-7-------------------9-9-9-9-9-9-9-9--------------------
B ---4-4-4-4-4-4-4-4--7-7-7-7-7-7-7-7--7-7-7-7-7-7-7-7--9-9-9-9-9-9-9-9--------------------(*Low C# can be used instead of high) 
F#---4-4-4-4-4-4-4-4--5-5-5-5-5-5-5-5--7-7-7-7-7-7-7-7--7-7-7-7-7-7-7-7--------------------
C#---2-2-2-2-2-2-2-2-------------------5-5-5-5-5-5-5-5-------------------------------------
[ Tab from: http://www.guitartabs.cc/tabs/t/trust_company/downfall_tab_ver_4.html ]
After Chorus
C#-----------------------------------------------------------------------------------------
G#-----------------------------------------------------------------------------------------
E -----------------------------------------------------7-7-7-7-7-7-7-7---------------------
B ---2-4-4--2-4-4--2-4-4--2-4-4--2-4-4--2-4-4--2-4-4---7-7-7-7-7-7-7-7---------------------
F#---2-4-4--2-4-4--2-4-4--2-4-4--2-4-4--2-4-4--2-4-4---5-5-5-5-5-5-5-5---------------------
C#---0-2-2--0-2-2--0-2-2--0-2-2--0-2-2--0-2-2--0-2-2---------------------------------------

(No guitar verse 2)


Prechorus
C#-----------------------------------------------------------------------------------------
G#-----------------------------------------------------------------------------------------
E ---------9-9-9-9------9-9-9-9--------9-9-9-9---------------------------------------------(2 times)
B ---4-4---*-*-*-*--4---*-*-*-*--4-4---*-*-*-*--2-5----------------------------------------
F#---4-4---7-7-7-7--4---7-7-7-7--4-4---7-7-7-7--2-5----------------------------------------
C#---2-2------------2------------2-2------------0-3----------------------------------------


Chorus
C#-----------------------------------------------------------------------------------------
G#--------------------------------------------------------***********----------------------
E --------------------7-7-7-7-7-7-7-7-------------------9-9-9-9-9-9-9-9--------------------
B ---4-4-4-4-4-4-4-4--7-7-7-7-7-7-7-7--7-7-7-7-7-7-7-7--9-9-9-9-9-9-9-9--------------------(*Low C# can be used instead of high) 
F#---4-4-4-4-4-4-4-4--5-5-5-5-5-5-5-5--7-7-7-7-7-7-7-7--7-7-7-7-7-7-7-7--------------------
C#---2-2-2-2-2-2-2-2-------------------5-5-5-5-5-5-5-5-------------------------------------


bridge (clean then distorted)
C#-----------------------------------------------------------------------------------------
G#-----------------------------------------------------------------------------------------
E -----------------------------------------------------------------------------------------
B -----------------------------------------------------------------------------------------
F#-------5-----5-----5-----5-------5-----5-----5--(Go!)------------------------------------
C#---0-2---0-2---0-2---0-2-----0-2---0-2---0-2---------------------------------------------


Chorus and semi outro
C#-----------------------------------------------------------------------------------------
G#--------------------------------------------------------***********----------------------
E --------------------7-7-7-7-7-7-7-7-------------------9-9-9-9-9-9-9-9--------------------
B ---4-4-4-4-4-4-4-4--7-7-7-7-7-7-7-7--7-7-7-7-7-7-7-7--9-9-9-9-9-9-9-9--------------------(*Low C# can be used instead of high) 
F#---4-4-4-4-4-4-4-4--5-5-5-5-5-5-5-5--7-7-7-7-7-7-7-7--7-7-7-7-7-7-7-7--------------------
C#---2-2-2-2-2-2-2-2-------------------5-5-5-5-5-5-5-5-------------------------------------


Prechorus
C#-----------------------------------------------------------------------------------------
G#-----------------------------------------------------------------------------------------
E ---------9-9-9-9------9-9-9-9--------9-9-9-9---------------------------------------------(2 times)
B ---4-4---*-*-*-*--4---*-*-*-*--4-4---*-*-*-*--2-5----------------------------------------
F#---4-4---7-7-7-7--4---7-7-7-7--4-4---7-7-7-7--2-5----------------------------------------
C#---2-2------------2------------2-2------------0-3----------------------------------------


That's it, enjoy this great song . anything that's not clear, e-mail me at 
proguitar_dude14@hotmail.com
Comments