Trust Company - Downfall Chords & Tabs

 

Downfall Chords & Tabs

Trust Company Chords & Tabs

Version: 1 Type: Tab 0 ratings
1 star 2 stars 3 stars 4 stars 5 stars
comments

Downfall Tab

"Downfall"
by: Trust Company


This is how I play it, Drop D tuning. Pardon any mistakes. Feel free to move
chord positions up and down the fretboard but, I'm 100% sure the chorus is correct!


Intro/Bridge:

e-|---------------------------------------------------------------|
B-|---------------------------------------------------------------|
G-|---------------------------------------------------------------|
D-|---4h6-6h4-6h4-4-4h6-6-6h4-6h4-4-4h6-6-6h4-6h4-4-X-6-6-X-7-7---|
A-|---4h6-6h4-6h4-4-4h6-6-6h4-6h4-4-4h6-6-6h4-6h4-4-X-6-6-X-7-7---|
d-|---4h6-6h4-6h4-4-4h6-6-6h4-6h4-4-4h6-6-6h4-6h4-4-X-6-6-X-7-7---|

Play three times for intro, twice for bridge. Here's the little ending 
right before bridge turns into chorus:


e-|-----------|
B-|-----------|
G-|---4-4-4---|
D-|-----------|
A-|-----------|
d-|-----------|



Chorus:
[ Tab from: http://www.guitartabs.cc/tabs/t/trust_company/downfall_tab.html ]
e-|---------|--------------------|
B-|---------|--------------------|
G-|---X-X---|----------------6---|
D-|---X-X---|---6---11---4---6---|
A-|---X-X---|---6---9----4---4---|
d-|---------|---6---9----4-------|

Start the chorus with the quick mute riff and then play these chords.
Listen to the song for the rhythm.



Solo:

e-|---------------------------|
B-|---------------------------|
G-|---------------------------|
D-|---------------------------|
A-|---------------------------|
d-|---4-6-9---4h6-9---4h6-9---|

Play this (above) twice, then play:

e-|---------------------------|
B-|---------------------------|
G-|---------------------------|
D-|---4h6-9---4h6-9---4h6-9---|
A-|---4h6-9---4h6-9---4h6-9---|
d-|---4h6-9---4h6-9---4h6-9---|

Play this four times (I'm pretty sure).



Outro:

e-|-----------------------------------------------------|
B-|-----------------------------------------------------|
G-|-----------------------------------------------------|
D-|---4-4---------------4---------4-4-------------6-7---|
A-|---4-4-6-6-6-6-6-6-6-4-6-6-6-6-4-4-6-6-6-6-6-6-6-7---|
d-|---4-4---------------4---------4-4-------------6-7---|

Play twice and your allllllllset!

Comments