Trust Company - Deeper Into You Chords & Tabs

 

Deeper Into You Chords & Tabs

Trust Company Chords & Tabs

Version: 3 Type: Tab 0 ratings
1 star 2 stars 3 stars 4 stars 5 stars
comments

Deeper Into You Tab

Artist: Trust Company
Song: Deeper Into You
Tabbed by: Greg Vautour
Album: The lonely position of neutral
Date: July 26 2002

This is my second trust company song and i have the cd now.. It is the best cd i have ever heard, if you get
a chance, buy it because it is an interactive cd or download their music.
	This song is with two guitars like all of their songs so i will make both parts.

Intro guitar 1
C#----------------------------------------------------------------------------------
G#----------------------------------------------------------------------------------
E ---1-2----1-2----1-2----1-2------------------------------------------------------- 2 times
B --0-------------------------------------------------------------------------------
F#---------------0------------------------------------------------------------------
C#--------2-------------0-----------------------------------------------------------

2nd Intro guitar 1
C#----------------------------------------------------------------------------------
G#----------------------------------------------------------------------------------
E ----7-7-7-7-7-7-7-7---------------------------------------------------------------
B ----7-7-7-7-7-7-7-7-4-4-4-4-4-4-4-4--7-7-7-7-7-7-7-7--2-2-2-2-2-2-2-2-------------
F#----5-5-5-5-5-5-5-5-4-4-4-4-4-4-4-4--7-7-7-7-7-7-7-7--2-2-2-2-2-2-2-2-------------
C#--------------------2-2-2-2-2-2-2-2--5-5-5-5-5-5-5-5--0-0-0-0-0-0-0-0-------------


Intro/Chorus guitar 2
C#---0-4-5----------4-5-7--4-5-7--4-5-7---4-0---0-4-0--------------------------------
G#--------------------------------------------0--------------------------------------
E -----------------------------------------------------------------------------------
B -----------------------------------------------------------------------------------
F#-----------------------------------------------------------------------------------
C#-----------------------------------------------------------------------------------

Pre-Verse both
C#-------------------xxxxxx----------------------------------------------------------
G#-------------------xxxxxx----------------------------------------------------------
E -------------------xxxxxx---------------------------------------------------------- 4 times
B ----4---------4-4--xxxxxx----------------------------------------------------------
F#----4-5-------4-4--xxxxxx----------------------------------------------------------
C#--0-2---0-0-0-2-2--xxxxxx----------------------------------------------------------

Verse guitar 1
C#-----------------------------------------------------------------------------------
G#-----------------------------------------------------------------------------------
E --------------------7-7-7-7-7-7-7-7-7----------------------------------------------
B --4-4---4-4---4-4---7-7-7-7-7-7-7-7-7---2---4-4--(2-times)(second time end with)(2)
F#--4-4---4-4---4-4---5-5-5-5-5-5-5-5-5---2---4-4---------------------------------(2)
C#--2-2---2-2---2-2-----------------------0---2-2---------------------------------(0)

Verse guitar 2
C#-----------------------------------------------------------------------------------
G#-----------------------------------------------------------------------------------
E --1-1-2-2-4-4-2-2-1-1-2-2--------1-1-2-2-4-4-2-2-1-1--------1-1-2-2-4-4-2-2-1-1-2-2
B -----------------------------------------------------2-2---------------------------
F#-----------------------------------------------------------------------------------
C#-----------------------------------------------------------------------------------
[ Tab from: http://www.guitartabs.cc/tabs/t/trust_company/deeper_into_you_tab_ver_3.html ]
Chorus guitar 1
C#-----------------------------------------------------------------------------------
G#-----------------------------------------------------------------------------------
E ----7-7-7-7-7-7-7-7----------------------------------------------------------------
B ----7-7-7-7-7-7-7-7-4-4-4-4-4-4-4-4--7-7-7-7-7-7-7-7--2-2-2-2-2-2-2-2--------------
F#----5-5-5-5-5-5-5-5-4-4-4-4-4-4-4-4--7-7-7-7-7-7-7-7--2-2-2-2-2-2-2-2--------------
C#--------------------2-2-2-2-2-2-2-2--5-5-5-5-5-5-5-5--0-0-0-0-0-0-0-0--------------

Verse guitar 1
C#-----------------------------------------------------------------------------------
G#-----------------------------------------------------------------------------------
E --------------------7-7-7-7-7-7-7-7-7----------------------------------------------
B --4-4---4-4---4-4---7-7-7-7-7-7-7-7-7---2---4-4--(2-times)(second time end with)(2)
F#--4-4---4-4---4-4---5-5-5-5-5-5-5-5-5---2---4-4---------------------------------(2)
C#--2-2---2-2---2-2-----------------------0---2-2---------------------------------(0)


Verse guitar 2
C#-----------------------------------------------------------------------------------
G#-----------------------------------------------------------------------------------
E --1-1-2-2-4-4-2-2-1-1-2-2--------1-1-2-2-4-4-2-2-1-1--------1-1-2-2-4-4-2-2-1-1-2-2
B -----------------------------------------------------2-2---------------------------
F#-----------------------------------------------------------------------------------
C#-----------------------------------------------------------------------------------

Chorus guitar 1
C#-----------------------------------------------------------------------------------
G#-----------------------------------------------------------------------------------
E ----7-7-7-7-7-7-7-7----------------------------------------------------------------
B ----7-7-7-7-7-7-7-7-4-4-4-4-4-4-4-4--7-7-7-7-7-7-7-7--2-2-2-2-2-2-2-2--------------
F#----5-5-5-5-5-5-5-5-4-4-4-4-4-4-4-4--7-7-7-7-7-7-7-7--2-2-2-2-2-2-2-2--------------
C#--------------------2-2-2-2-2-2-2-2--5-5-5-5-5-5-5-5--0-0-0-0-0-0-0-0--------------

Pre-Verse both
C#-------------------xxxxxx----------------------------------------------------------
G#-------------------xxxxxx----------------------------------------------------------
E -------------------xxxxxx---------------------------------------------------------- 4 times
B ----4---------4-4--xxxxxx----------------------------------------------------------
F#----4-5-------4-4--xxxxxx----------------------------------------------------------
C#--0-2---0-0-0-2-2--xxxxxx----------------------------------------------------------

Bridge
C#-----------------------------------------------------------------------------------
G#-----------------------------------------------------------------------------------
E -----------------------------------------------------------------------------------
B --4-4---4-4-4------4-4---4-4-4----------------------------------------------------- 2 times
F#--4-4---4-4-4------4-4---4-4-4-----------------------------------------------------
C#--2-2---2-2-2------2-2---2-2-2-----------------------------------------------------

Chorus guitar 1
C#-----------------------------------------------------------------------------------
G#-----------------------------------------------------------------------------------
E ----7-7-7-7-7-7-7-7----------------------------------------------------------------
B ----7-7-7-7-7-7-7-7-4-4-4-4-4-4-4-4--7-7-7-7-7-7-7-7--2-2-2-2-2-2-2-2--------------
F#----5-5-5-5-5-5-5-5-4-4-4-4-4-4-4-4--7-7-7-7-7-7-7-7--2-2-2-2-2-2-2-2--------------
C#--------------------2-2-2-2-2-2-2-2--5-5-5-5-5-5-5-5--0-0-0-0-0-0-0-0--------------


Outro both
C#-----------------------------------------------------------------------------------
G#-----------------------------------------------------------------------------------
E -----------------------------------------------------------------------------------
B -4-4--4-4-4-4-4---4-4--4-4-4-------------------------------------------------------
F#-4-4--4-4-4-4-4---4-4--4-4-4-------------------------------------------------------
C#-2-2--2-2-2-2-2---2-2--2-2-2-------------------------------------------------------


Any questions or comments, my email is proguitar_dude14@hotmail.com
Comments