Truefaith - Huwag Na Lang Kaya Chords & Tabs

 

Huwag Na Lang Kaya Chords & Tabs

Truefaith Chords & Tabs

Version: 3 Type: Tab 0 ratings
1 star 2 stars 3 stars 4 stars 5 stars
comments

Huwag Na Lang Kaya Tab

   
Huwag na lang kaya - True Faith
Tab: Joey Escalante

I've listened to the song too many times.. and this is what I came up with..
Didn't get the last part... sorry :)
rate niyo na lang.. 
comments email me: gee_rock99@yahoo.com

Intro:

|------0---0------2-----2-----4---4------2--------0--|
|------2---2------3-----3-----5---5------3--------3--|
|------1---1------2-----2-----4---4------2--------2--| X2
|------2---2------4---4-------6---6------4------0----|   
|----0---0----0-2---2-----0-4---4----0-2------0------|
|-0h2------------------------------------------------|
       Am7       Bm7         C#m7       Bm7      Bb


Verse :

|------0---0------2-----2-----4---4------2--------0--|
|------2---2------3-----3-----5---5------3--------3--|
|------1---1------2-----2-----4---4------2--------2--|
|------2---2------4---4-------6---6------4------0----|   
|----0---0----0-2---2-----0-4---4----0-2------0------|
|-0h2------------------------------------------------|
       Am7       Bm7         C#m7       Bm7      Bb7
     Nais ko     ay      magpakilala sa   iyo

|------0---0------2-----2-----4---4------2----0--|
|------2---2------3-----3-----5---5------3----3--|
|------1---1------2-----2-----4---4------2----2--|
|------2---2------4---4-------6---6------4----3--| 
|----0---0----0-2---2-----0-4---4----0-2------0--|
|-0h2--------------------------------------------|
       Am7       Bm7         C#m7       Bm7   Bb7
      At ipahiwatig  an nalalaman ng puso ko

Bridge:
[ Tab from: http://www.guitartabs.cc/tabs/t/truefaith/huwag_na_lang_kaya_tab_ver_3.html ]
|------5---5------4-----4-----5---5--------4-----4------------2---2--0-0--|
|------7---7------5-----5-----7---7--------5-----5------------3---3--0-0--|
|------6---6------4-----4-----6---6--------4-----4------------2---2--1-1--|
|------7---7------6---6-------7---7--------6---6--------------4---4--0-0--|   
|-0-5----5----0-4---4-----0-5---5------0-4---4------------0-2---2----2-2--|
|--------------------------------------------------------------------0----|
     Dm7          C#m7       Dm7         C#m7                 Bm7      E7
 Maunawan mo kaya  o baka sampalin mo lang ang aking mukha nagdadal'wang isip na

Chorus:

|------0---0------2-----2-----4---4------2--------0--|
|------2---2------3-----3-----5---5------3--------3--|
|------1---1------2-----2-----4---4------2--------2--|X2
|------2---2------4---4-------6---6------4------0----|   
|----0---0----0-2---2-----0-4---4----0-2------0------|
|-0h2------------------------------------------------|
       Am7       Bm7         C#m7       Bm7      Bb7
     Huwag     na lang    kaya

 Am7       Bm7  C#m7   Bm7-Bb7
Nais ko ay  ialay sa    iyo
 Am7        Bm7     C#m7   Bm7 Bb7
Ang puso ko  na umiibig sa iyo
 Dm7               C#m7
Ngunit di  mo na yata kailangan ng ganyan
 Dm7                C#m7
Meron ka na yatang kasintahan
 Bm7           E7sus, E7 hold
Naninikip ang tiyan...

solo (electric guitar)
e|----------------------------------------------------------------|
B|---------------------------7-6----------------------------------|
G|---------------3-3-4-4h6---------6h7-7-99s6s5-6h7-7-9----------|
D|---------3-4-6--------------------------------------------------|
A|-4-4-4h6--------------------------------------------------------|
E|----------------------------------------------------------------|

e|-------------------4-5-7----------------------------------------|
B|-----------5-7-5-7----------------------------------------------|
G|-7-7-7--9-------------------------------------------------------|
D|----------------------------------------------------------------|
A|----------------------------------------------------------------|
E|----------------------------------------------------------------|

Repeat last 3 lines of 2nd verse
Repeat Chorus
Comments