Truefaith - Huwag Na Lang Kaya Chords & Tabs

 

Huwag Na Lang Kaya Chords & Tabs

Truefaith Chords & Tabs

Version: 2 Type: Tab 0 ratings
1 star 2 stars 3 stars 4 stars 5 stars
comments

Huwag Na Lang Kaya Tab

Hehe... Pinakingan kong mabuti yung kanta... Kaso di ko na tinab yung solo
Tsaka yung chord sa huli... Kayo na bhla dun...
Nico Abrigo

Intro:

|------0---0------2-----2-----4---4------2--------0--|
|------2---2------3-----2-----5---5------3--------3--|
|------1---1------2-----2-----4---4------2--------2--|
|------2---2------4---4-------6---6------4------3----|   
|----0---0----0-2---2-----0-4---4----0-2------0------|
|-0h2------------------------------------------------|

|------0---0------2-----2-----4---4------2----0--|
|------2---2------3-----2-----5---5------3----3--|
|------1---1------2-----2-----4---4------2----2--|
|------2---2------4---4-------6---6------4----3--| 
|----0---0----0-2---2-----0-4---4----0-2------0--|
|-0h2--------------------------------------------|

Verse :

|------0---0------2-----2-----4---4------2--------0--|
|------2---2------3-----2-----5---5------3--------3--|
|------1---1------2-----2-----4---4------2--------2--|
|------2---2------4---4-------6---6------4------3----|   
|----0---0----0-2---2-----0-4---4----0-2------0------|
|-0h2------------------------------------------------|
[ Tab from: http://www.guitartabs.cc/tabs/t/truefaith/huwag_na_lang_kaya_tab_ver_2.html ]
|------0---0------2-----2-----4---4------0--------0--|
|------2---2------3-----2-----5---5------0--------2--|
|------1---1------2-----2-----4---4------0--------0--|
|------2---2------4---4-------6---6------0------2----|   
|----0---0----0-2---2-----0-4---4----0-2------0------|
|-0h2------------------------------------------------|

Bridge:

|------5---5------4-----4-----5---5------4-----4------2---2--0-0--|
|------7---7------5-----5-----7---7------5-----5------2---3--0-0--|
|------6---6------4-----4-----6---6------4-----4------2---2--1-1--|
|------7---7------6---6-------7---7------6---6--------4---4--0-0--|   
|-0-5----5----0-4---4-----0-5---5----0-4---4------0-2---2----2-2--|
|------------------------------------------------------------0----|

Chorus:

|------0---0------2-----2-----4---4------2--------0--|
|------2---2------3-----2-----5---5------3--------3--|
|------1---1------2-----2-----4---4------2--------2--|
|------2---2------4---4-------6---6------4------3----|   
|----0---0----0-2---2-----0-4---4----0-2------0------|
|-0h2------------------------------------------------|

|------0---0------2-----2-----4---4------2----0--|
|------2---2------3-----2-----5---5------3----3--|
|------1---1------2-----2-----4---4------2----2--|
|------2---2------4---4-------6---6------4----3--| 
|----0---0----0-2---2-----0-4---4----0-2------0--|
|-0h2--------------------------------------------|
Comments