Truefaith - Huwag Na Lang Kaya Chords & Tabs

 

Huwag Na Lang Kaya Chords & Tabs

Truefaith Chords & Tabs

Version: 1 Type: Tab 0 ratings
1 star 2 stars 3 stars 4 stars 5 stars
comments

Huwag Na Lang Kaya Tab

Huwag na lang kaya
true faith
tabbed by:Mark Lavalle
www.mark_des22@yahoo.com


I'm not 100% sure sa tab na to.. pero mukhang ok na rin..
Just listen to the song to know the timing for the strumming and tapping..

^ is for tapping

intro:

|------0---0------2------2------4----4------2----1---|
|------1---1------4------4------6----6------4----3---|
|------2---2------2------2------4----4------2----1---|
|------2---2------2------2------4----4------2----1---|
|----2---2----0-2-2--2-2-2--2-4-4--4-4--4-2-2--1-1---|
|-0h2------------------------------------------------|
            ^      ^      ^           ^      ^


|------0---0------2------2------4----4------2----1---|
|------1---1------4------4------6----6------4----3---|
|------2---2------2------2------4----4------2----1---|
|------2---2------2------2------4----4------2----1---|
|----2---2----0-2-2--2-2-2--2-4-4--4-4--4-2-2----1---|
|-0h2--------------------------------------------1---|
            ^      ^      ^           ^      ^

verse 1


       Nais ko ay magpakilala...
|------0---0------2------2------4----4------2----1---|
|------1---1------4------4------6----6------4----3---|
|------2---2------2------2------4----4------2----1---|
|------2---2------2------2------4----4------2----1---| 2x
|----2---2----0-2-2--2-2-2--2-4-4--4-4--4-2-2--1-1---|
|-0h2------------------------------------------------|
            ^      ^      ^           ^      ^


      Maunawaan mo kaya...
|-----4----4------2----1----|
|-----6----6------4----3----|
|-----4----4------2----1----|
|-----4----4------2----1----|
|-1-4-4--4-4--4-2-2--1-1----|
|---------------------------|
       ^           ^ 
      baka sampalin..
|-----4----4------2----1----|
|-----6----6------4----3----|
|-----4----4------2----1----|
|-----4----4------2----1----|
|-1-4-4--4-4--4-2-2--1-1----|
|---------------------------|
       ^           ^ 
      Nagdadalawang...
|-----4----4----2---1----|
|-----6----6----4---3----|
|-----4----4----2---1----|
|-----4----4----2---1----|
|-1-4-4--4-4--4-2---1----|
|---------------2---1----|
       ^        

Chorus:


       Huwag na lang
|------0---0------2------2------4----4------2----1---|
|------1---1------4------4------6----6------4----3---|
|------2---2------2------2------4----4------2----1---|
|------2---2------2------2------4----4------2----1---|
|----2---2----0-2-2--2-2-2--2-4-4--4-4--4-2-2--1-1---|
|-0h2------------------------------------------------|
            ^      ^      ^           ^      ^

       Huwag na lang
|------0---0------2------2------4----4------2----1---|
|------1---1------4------4------6----6------4----3---|
|------2---2------2------2------4----4------2----1---|
|------2---2------2------2------4----4------2----1---|
|----2---2----0-2-2--2-2-2--2-4-4--4-4--4-2-2----1---|
|-0h2--------------------------------------------1---|
            ^      ^      ^      ^           ^

verse 2
[ Tab from: http://www.guitartabs.cc/tabs/t/truefaith/huwag_na_lang_kaya_tab.html ]
       Nais ko ay ialay..
|------0---0------2------2------4----4------2----1---|
|------1---1------4------4------6----6------4----3---|
|------2---2------2------2------4----4------2----1---|
|------2---2------2------2------4----4------2----1---| 2x
|----2---2----0-2-2--2-2-2--2-4-4--4-4--4-2-2--1-1---|
|-0h2------------------------------------------------|
            ^      ^      ^           ^      ^


      Ngunit di...
|-----4----4------2----1----|
|-----6----6------4----3----|
|-----4----4------2----1----|
|-----4----4------2----1----|
|-1-4-4--4-4--4-2-2--1-1----|
|---------------------------|
       ^           ^ 
      Meron ka na...
|-----4----4------2----1----|
|-----6----6------4----3----|
|-----4----4------2----1----|
|-----4----4------2----1----|
|-1-4-4--4-4--4-2-2--1-1----|
|---------------------------|
       ^           ^ 
      Nanginginig..
|-----4----4----2---1----|
|-----6----6----4---3----|
|-----4----4----2---1----|
|-----4----4----2---1----|
|-1-4-4--4-4--4-2---1----|
|---------------2---1----|

       ^        

wla pa akng solo.. cencya na!
pero heto ang tabs beyond solo...


|------0---0------2------2------4----4------2----1---|
|------1---1------4------4------6----6------4----3---|
|------2---2------2------2------4----4------2----1---|
|------2---2------2------2------4----4------2----1---| 2x
|----2---2----0-2-2--2-2-2--2-4-4--4-4--4-2-2--1-1---|
|-0h2------------------------------------------------|
            ^      ^      ^           ^      ^


      Ngunit di...
|-----4----4------2----1----|
|-----6----6------4----3----|
|-----4----4------2----1----|
|-----4----4------2----1----|
|-1-4-4--4-4--4-2-2--1-1----|
|---------------------------|
       ^           ^ 
      Meron ka na...
|-----4----4------2----1----|
|-----6----6------4----3----|
|-----4----4------2----1----|
|-----4----4------2----1----|
|-1-4-4--4-4--4-2-2--1-1----|
|---------------------------|
       ^           ^ 
      Nanginginig...
|-----4----4----2---1----|
|-----6----6----4---3----|
|-----4----4----2---1----|
|-----4----4----2---1----|
|-1-4-4--4-4--4-2---1----|
|---------------2---1----|
       ^        

repeat chorus..

outro:

Huwag na lang             Huwag na lang
|------0---0------2----2-|------0---0------2----2-|
|------1---1------4----4-|------1---1------4----4-|
|------2---2------2----2-|------2---2------2----2-|
|------2---2------2----2-|------2---2------2----2-|
|----2---2----0-2-2--2-2-|----2---2----0-2-2--2-2-|
|-0h2--------------------|-0h2--------------------|

            ^                        ^
Huwag na lang kaya
|------0---0------2----2-|------0---0------2---2--4---|
|------1---1------4----4-|------1---1------4---4--6---|
|------2---2------2----2-|------2---2------2---2--4---|
|------2---2------2----2-|------2---2------2---2--4---|
|----2---2----0-2-2--2-2-|----2---2----0-2-2---2--4---|
|-0h2--------------------|-0h2-----------------2--4---|
            ^                        ^

Lyrics:

verse 1

Nais ko ay magpakilala sa iyo
at ipahiwatig ang nilalaman ng puso ko

ref:

maunawaan mo kaya o baka sampalin mo lang ang aking mukha
nag-dadalawang isip na

Chorus:

Huwag na lang kaya
Huwag na lang kaya

verse 2

Nais ko ay ialay sa iyo
ang puso ko na umiibig sayo

ref:

Ngunit di mo na yata kailangan ng ganyan
meron ka na yatang kasintahan
nanginginig ang tiyan

repeat chorus.


yan, tapos na.. kayo na bahala mag-correct sa mga mali dyan..
e-mail me at my add.. c",)
Comments