Trucks - Its Just Porn Mum Chords & Tabs

 

Its Just Porn Mum Chords & Tabs

Trucks Chords & Tabs

Version: 1 Type: Tab 0 ratings
1 star 2 stars 3 stars 4 stars 5 stars
comments

Its Just Porn Mum Tab

Band: Trucks
Song: Its Just Porn mum
Tabbed By: Steven Brockie

I havent seen any tabs for this song so far and I watched
the vid so this song should be correct.

\ slide

Intro:clean
|------------------------|
|------------------------|
|------------------------|
|---4--444-6--2--222-----|
|-2-2--222-4--0--000-----|
|-0--------------000-----|

Verse:clean
|------------------------|
|------------------------|
|------------------------|
|---4--444-6--2--222-----|
|-2-2--222-4--0--000-----|
|-0--------------000-----|

Chorus: Distortion
|------------------------|
|------------------------|
|------------------------|
|---4--444-6--2--222-----|
|-2-2--222-4--0--000-----|
|-0--------------000-----|
[ Tab from: http://www.guitartabs.cc/tabs/t/trucks/its_just_porn_mum_tab.html ]
Verse:clean
|------------------------|
|------------------------|
|------------------------|
|---4--444-6--2--222-----|
|-2-2--222-4--0--000-----|
|-0--------------000-----|

Chorus: Distortion
|------------------------|
|------------------------|
|------------------------|
|---4--444-6--2--222-----|
|-2-2--222-4--0--000-----|
|-0--------------000-----|


Interlude:clean
|--------------|------------------|
|--------------|------------------|
|--------------|------------------|
|-----4--6-2---|------4--6-2--9\--|
|--2-2--4--0---|---2-2--4--0--9\--|
|-0------------|-0------------9\--|

Chorus: Distortion
|------------------------|
|------------------------|
|------------------------|
|---4--444-6--2--222-----|
|-2-2--222-4--0--000-----|
|-0--------------000-----|
Comments