Trucks - Its Just Porn Mum Chords & Tabs

 

Trucks Chords & Tabs

Version: 1 Type: Bass Tab 0 ratings
1 star 2 stars 3 stars 4 stars 5 stars
comments

Its Just Porn Mum Bass Tab

   
                             It's Just Porn Mum                                


                                                                          Trucks
Bass



     W                   E  E  E  Q    E  E  E     E  E  E  E  Q    E  E   
G||-------------------|-------------------------|-------------------------|
D||-------------------|-------------------------|-------------------------|
A||-------------------|-----------2----L--2--2--|-----4--4--2--0----2--0--|
E||-------------------|--0--0-------------------|-------------------------|


  E  E  E  Q    E  E  E     E  E  E  E  Q    E  E     E  E  E  Q    E  E  E   
-------------------------|-------------------------|-------------------------|
-------------------------|-------------------------|-------------------------|
-----------2----L--2--2--|-----4--4--2--0----2--0--|-----------2----L--2--2--|
--0--0-------------------|-------------------------|--0--0-------------------|


  E  E  E  E  Q    E  E     E  E  E  Q    E  E  E     E  E  E  E  Q    E  E   
-------------------------|-------------------------|-------------------------|
-------------------------|-------------------------|-------------------------|
-----4--4--2--0----2--0--|-----------2----L--2--2--|-----4--4--2--0----2--0--|
-------------------------|--0--0-------------------|-------------------------|


  E  E  E  Q    E  E  E     E  E  E  E  Q    E  E     E  E  E  E  H         
-------------------------|-------------------------|-----------------------|
-------------------------|-------------------------|-----------------------|
-----------2----L--2--2--|-----4--4--2--0----2--0--|--2--2-----2--2--------|
--0--0-------------------|-------------------------|-----------------------|


  H        E  E  E  E     W                   E  E  E  Q    E  E  E   
-----------------------|-------------------|-------------------------|
-----------------------|-------------------|-------------------------|
--0--------L--0-----2--|--L----------------|-----------2----L--2--2--|
-----------------------|-------------------|--0--0-------------------|


  E  E  E  E  Q    E  E     E  E  E  Q    E  E  E     E  E  E  E  Q    E  E   
-------------------------|-------------------------|-------------------------|
-------------------------|-------------------------|-------------------------|
-----4--4--2--0----2--0--|-----------2----L--2--2--|-----4--4--2--0----2--0--|
-------------------------|--0--0-------------------|-------------------------|


  E  E  E  Q    E  E  E     E  E  E  E  Q    E  E     E  E  E  E  H         
-------------------------|-------------------------|-----------------------|
-------------------------|-------------------------|-----------------------|
-----------2----L--2--2--|-----4--4--2--0----2--0--|--2--2-----2--2--------|
--0--0-------------------|-------------------------|-----------------------|


  H        E  E  E  E     W                   E  E  E  Q    E  E  E   
-----------------------|-------------------|-------------------------|
-----------------------|-------------------|-------------------------|
--0--------L--0-----2--|--L----------------|-----------2----2--2--2--|
-----------------------|-------------------|--0--0--0----------------|


  E  E  E  Q    E  E  E     E  E  E  Q    E  E  E     E  E  E  Q    E  E  E   
-------------------------|-------------------------|-------------------------|
-------------------------|-------------------------|-------------------------|
--4--4--2--0----0--2--0--|-----------2----2--2--2--|--4--4--2--0----0--2--0--|
-------------------------|--0--0--0----------------|-------------------------|


  E  E  E  Q    E  E  E     E  E  E  Q    E  E  E     E  E  E  Q    E  E  E   
-------------------------|-------------------------|-------------------------|
-------------------------|-------------------------|-------------------------|
-----------2----2--2--2--|--4--4--2--0----0--2--0--|-----------2----2--2--2--|
--0--0--0----------------|-------------------------|--0--0--0----------------|


  E  E  E  Q    E  E  E     W                   H        Q     Q      
-------------------------|-------------------|-----------------------|
-------------------------|-------------------|-----------------------|
--4--4--2--0----0--2--0--|-------------------|-----------------------|
-------------------------|-------------------|----------------12\----|


  E  E  E  Q    E  E  E     E  E  E  E  Q    E  E     E  E  E  Q    E  E  E   
-------------------------|-------------------------|-------------------------|
-------------------------|-------------------------|-------------------------|
-----------2----L--2--2--|-----4--4--2--0----2--0--|-----------2----L--2--2--|
--0--0-------------------|-------------------------|--0--0-------------------|


  E  E  E  E  Q    E  E     E  E  E  E  H           H        E  E  E  E   
-------------------------|-----------------------|-----------------------|
-------------------------|-----------------------|-----------------------|
-----4--4--2--0----2--0--|--2--2-----2--2--------|--0--------L--0-----2--|
-------------------------|-----------------------|-----------------------|


  W                   E  E  E  Q    E  E  E     E  E  E  Q    E  E  E   
-------------------|-------------------------|-------------------------|
-------------------|-------------------------|-------------------------|
--L----------------|-----------2----2--2--2--|--4--4--2--0----0--2--0--|
-------------------|--0--0--0----------------|-------------------------|

[ Tab from: http://www.guitartabs.cc/tabs/t/trucks/its_just_porn_mum_btab.html ]
  E  E  E  Q    E  E  E     E  E  E  Q    E  E  E     E  E  E  Q    E  E  E   
-------------------------|-------------------------|-------------------------|
-------------------------|-------------------------|-------------------------|
-----------2----2--2--2--|--4--4--2--0----0--2--0--|-----------2----2--2--2--|
--0--0--0----------------|-------------------------|--0--0--0----------------|


  E  E  E  Q    E  E  E     E  E  E  Q    E  E  E     E  E  E  Q    E  E  E   
-------------------------|-------------------------|-------------------------|
-------------------------|-------------------------|-------------------------|
--4--4--2--0----0--2--0--|-----------2----2--2--2--|--4--4--2--0----0--2--0--|
-------------------------|--0--0--0----------------|-------------------------|


  E  E  E  E  E  E  E  E     E  E  E  E  E  E  E  E     E  E  E  Q    E  E  E   
--------------------------|--------------------------|-------------------------|
--------------------------|--------------------------|-------------------------|
--3--3--3--3--3--3--3--3--|--5--5--5--5--5--5--5--5--|-----------2----L--2--2--|
--------------------------|--------------------------|--0--0-------------------|


  E  E  E  E  Q    E  E     E  E  E  Q    E  E  E     E  E  E  E  Q    E  E   
-------------------------|-------------------------|-------------------------|
-------------------------|-------------------------|-------------------------|
-----4--4--2--0----2--0--|-----------2----L--2--2--|-----4--4--2--0----2--0--|
-------------------------|--0--0-------------------|-------------------------|


  E  E  E  Q    E  E  E     E  E  E  E  Q    E  E     E  E  E  Q    E  E  E   
-------------------------|-------------------------|-------------------------|
-------------------------|-------------------------|-------------------------|
-----------2----L--2--2--|-----4--4--2--0----2--0--|-----------2----L--2--2--|
--0--0-------------------|-------------------------|--0--0-------------------|


  E  E  E  E  Q    E  E     E  E  E  Q    E  E  E     E  E  E  E  Q    E  E   
-------------------------|-------------------------|-------------------------|
-------------------------|-------------------------|-------------------------|
-----4--4--2--0----2--0--|-----------2----L--2--2--|-----4--4--2--0----2--0--|
-------------------------|--0--0-------------------|-------------------------|


  E  E  E  E  H           W                   W                 
-----------------------|-------------------|-------------------|
-----------------------|-------------------|-------------------|
--2--2-----2--2--------|--2----------------|-------------------|
-----------------------|-------------------|-------------------|


  W                   W                   W                   W                 
-------------------|-------------------|-------------------|-------------------|
-------------------|-------------------|-------------------|-------------------|
-------------------|-------------------|-------------------|-------------------|
-------------------|-------------------|-------------------|-------------------|


  W                   W                   H        Q     Q      
-------------------|-------------------|-----------------------|
-------------------|-------------------|-----------------------|
-------------------|-------------------|-----------------------|
-------------------|-------------------|----------------12\----|


  E  E  E  Q    E  E  E     E  E  E  Q    E  E  E     E  E  E  Q    E  E  E   
-------------------------|-------------------------|-------------------------|
-------------------------|-------------------------|-------------------------|
-----------2----2--2--2--|--4--4--2--0----0--2--0--|-----------2----2--2--2--|
--0--0--0----------------|-------------------------|--0--0--0----------------|


  E  E  E  Q    E  E  E     E  E  E  Q    E  E  E     E  E  E  Q    E  E  E   
-------------------------|-------------------------|-------------------------|
-------------------------|-------------------------|-------------------------|
--4--4--2--0----0--2--0--|-----------2----2--2--2--|--4--4--2--0----0--2--0--|
-------------------------|--0--0--0----------------|-------------------------|


  E  E  E  Q    E  E  E     E  E  E  Q    E  E  E     E  E  E  E  E  E  E  E   
-------------------------|-------------------------|--------------------------|
-------------------------|-------------------------|--------------------------|
-----------2----2--2--2--|--4--4--2--0----0--2--0--|--3--3--3--3--3--3--3--3--|
--0--0--0----------------|-------------------------|--------------------------|


  E  E  E  E  E  E  E  E     E  E  E  E  E  E  E  E   
--------------------------|--------------------------|
--------------------------|--------------------------|
--5--5--5--5--5--5--5--5--|--3--3--3--3--3--3--3--3--|
--------------------------|--------------------------|


  E  E  E  E  E  E  E  E     E  E  E  E  E  E  E  E   
--------------------------|--------------------------|
--------------------------|--------------------------|
--5--5--5--5--5--5--5--5--|--3--3--3--3--3--3--3--3--|
--------------------------|--------------------------|


  E  E  E  E  E  E  E  E     W                   W                  
--------------------------|-------------------|-------------------||
--------------------------|-------------------|-------------------||
--5--5--5--5--5--5--5--5--|--7----------------|--L----------------||
--------------------------|--0----------------|--L----------------||




Duration Legend
---------------
W - whole
H - half
Q - quarter
E - 8th
S - 16th
T - 32nd
X - 64th
. - note dotted
|-n-|  - n-tuplets


Tablature Legend
----------------
L - tied note
x - dead note
g - grace note
(n) - ghost note
> - accentuded note
NH - natural harmonic
AH - artificial harmonic
TH - tapped harmonic
SH - semi harmonic
PH - pitch harmonic
h - hammer on
p - pull off
b - bend
br - bendRelease
pb - preBend
pbr - preBendRelease
brb - bendReleaseBend
\n/ - tremolo bar dip
\n - tremolo bar dive
-/n - tremolo bar Release up
/n\ - tremolo bar inverted dip
/n - tremolo bar return
-\n - tremolo bar Release down
S - shift slide
s - legato slide
/ -  slide into from below or out of upwards
\ -  slide into from above or out of downwards
~ - vibrato
W - wide vibrato
tr - trill
TP - tremolo picking
T - tapping
S - slap
P - pop
< - fade in
^ - brush up
v - brush down
Comments