Trower Robin - Bluebird Chords & Tabs

 

Bluebird Chords & Tabs

Trower Robin Chords & Tabs

Version: 1 Type: Tab 0 ratings
1 star 2 stars 3 stars 4 stars 5 stars
comments

Bluebird Tab

   
#----------------------------------PLEASE NOTE---------------------------------#
#This file is the author's own work and represents their interpretation of the #
#song. You may only use this file for private study, scholarship, or research. #
#------------------------------------------------------------------------------##
Tabbed By Tim Norris (timn_62@yahoo.com)

This song is tuned down a half step - Eb

     
E---------0------------0------------0-------------0------------------------
B-------2---0--------0---0--------0---4/6-------0---0----------------------
G-------1------------2------------4-------------6--------------------------
D-----2------------4------------4-------------7----------------------------
A---2------------4------------5-------------7------------------------------
E-0------------0------------0-------------0--------------------------------

Repeat 4x to allow for solo

Chorus

    G#m      	  E  		   G#m      F#m	 A Maj  B Maj
[ Tab from: http://www.guitartabs.cc/tabs/t/trower_robin/bluebird_tab.html ]
E----0----------------0-------------0--------0-----5-----7----------------0---
B----0--------------2---0-----------0--------0-----5-----7--------------2---0-
G----0--------------1---------------0--------0-----6-----8--------------1-----
D----6------------2-----------------6--------4-----7-----9------------2-------
A----6----------2-------------------6--------4-----7-----9----------2---------
E----4--------0---------------------4--------2-----5-----7--------0-----------

Strum 2 bars,then E variation 2x, 2 bars, 1 bar, 1/2 bar, 1/2 bar, E var. 4x  
 

E---------0------------0------------0-------------0------------------------
B-------2---0--------0---0--------0---4/6-------0---0----------------------
G-------1------------2------------4-------------6--------------------------
D-----2------------4------------4-------------7----------------------------
A---2------------4------------5-------------7------------------------------
E-0------------0------------0-------------0-------------repeat-------------

"Sitting in the woods alone ...


Sitting in the wood alone
On silver tree that turned to stone
Branches growing overhead
Make your house and featherbed

Shiny beak and shiny eyes
Shiny winter paradise
Singing to the setting sun
Praying for the day that's done

Chorus

Growing quieter as you watch the snow
Falling down, down, down, down
If you want to know this heart
Listen, listen to the bluebird sing

If I had a voice like that
Melody like summer wine
Come sunshine island
I would bring
Music, to the new born king

Chorus

Growing quieter as you watch the snow
Falling down, down, down, down
If you want to know his heart
Listen, listen to the bluebird sing

Solo

Chorus

Growing quieter as you watch the snow
Falling down, down, down, down
If you want to know this heart
Listen, listen to the bluebird sing


Man, if you got the voice, this is a great chick song! Enjoy!
Comments