Trooper - The Boys In The Bright White Sports Car Chords & Tabs

 

The Boys In The Bright White Sports Car Chords & Tabs

Trooper Chords & Tabs

Version: 1 Type: Tab 0 ratings
1 star 2 stars 3 stars 4 stars 5 stars
comments

The Boys In The Bright White Sports Car Tab

Hey i was lookin for one of my favourite tunes one day its called "boys in the bright
white sports car" by the aweseome "canadian" band "TROOPER" i was very shocked to find
that not only was there no complete tab for it, but there were just chords!!! and the
chords did not even complete the whole song!! the injustice that was done to this song
moved me to do this tab justice as best i can, and i am not saying its perfect but its a
darn sight better than the other tabs out there!!!!!! now u can play this whole thing
exactly to the recording. it has some two guitar parts but alot of it is done by one
guitar. i did my best on the solos so please im sorry if they are not perfect!!! oh some
of the seperations i did purely for the convenice of how the tab will look but its all
played line after line. sorry i didnt include the lyrics. listen to the recording for the
rythm and rock out with this song its so sweet yaaaah trooper rocks! (oh sorry for
sending this in twice but one of the lines was messed up in the first one so if u fixed
it or coudl use this one instead that would be great)

contact me at ben_jamin401@hotmail.com for any questions corrections or improvements id
be more than happy to talk about them!!!

Verse one
-(guitar one)----------------------------------------------------------------|
-----------------------------------------------------------------------------|
-----------------------------------------------------------------------------|
-----------------------------------------------------------------------------|
----8---8---8---8-----8---8---8---8------------------------------------------|
-xh6-xh6-xh6-xh6---xh6-xh6-xh6-xh6-------------------------------------------|

-(guitar one)----------------------------------------------------------------|
-----------------------------------------------------------------------------|
-----------------------------------------------------------------------------|
-----------------------------------------------------------------------------|
----8---8---8---8-----8---8---8---8-----6---6---6---6-----6---6---6---6------|
-xh6-xh6-xh6-xh6---xh6-xh6-xh6-xh6--—xh4-xh4-xh4-xh4---xh4-xh4-xh4-xh4-------|

-(guitar two)----------------------------------------------------------------|
-----------------------------------------------------------------------------|
-----------------------------------------------------------------------------|
----8-----------------------------------6------------------------------------|
----8-----------------------------------6------------------------------------|
----6-----------------------------------4------------------------------------|

-(guitar one)----------------------------------------------------------------|
-----------------------------------------------------------------------------|
-------------------------------------------------------------6-6-------------|
----6---6---6---6-----8---8---8---8---------------------6-6--6-6-------------|
-xh4-xh4-xh4-xh4---xh6-xh6-xh6-xh6------8---8---8---8---6-6--4-4-------------|
-------------------------------------xh6-xh6-xh6-xh6----4-4------------------|


-(guitar two)----------------------------------------------------------------|
-----------------------------------------------------------------------------|
----6-----------------8--------------------------------------6-6-------------|
----6-----------------8-----------------8---------------6-6--6-6-------------|
----4-----------------6-----------------8---------------6-6--4-4-------------|
----------------------------------------6---------------4-4------------------|

Verse two
-(guitar one and two)--------------------------------------------------------|
-----------------------------------------------------------------------------|
-----------------------------------------------------------------------------|
-88-x-88-x---88-x-88-x-------------------------------------------------------|
-88-x-88-x---88-x-88-x-------------------------------------------------------|
-66-x-66-x---66-x-66-x-------------------------------------------------------|

-(guitar one and two)--------------------------------------------------------|
-----------------------------------------------------------------------------|
------------------------------------------------66-x-66-x---88-x-88----------|
-88-x-88-x---88-x-88-x---66-x-66-x--66-x-66-x---66-x-66-x---88-x-88----------|
-88-x-88-x---88-x-88-x---66-x-66-x--66-x-66-x---44-x-44-x---66-x-66----------|
-66-x-66-x---66-x-66-x---44-x-44-x--44-x-44-x--------------------------------|

-(guitar one and two)--------------------------------------------------------|
-----------------------------------------------------------------------------|
------------------6-6--------------------------------------------------------|
-88-x-88-x---6-6--6-6--------------------------------------------------------|
-88-x-88-x---6-6--4-4--------------------------------------------------------|
-66-x-66-x---4-4-------------------------------------------------------------|

(Bridge "La Da Da Da Da")
-(guitar one and two)--------------------------------------------------------|
-----------------------------------------------------------------------------|
-------------------------------------6-666---8-888---------------------------|
------8-----6h88--------8-----6h88---6-666---8-888---------------------------|
------------6h8---------------6h8----4-444---6-666---------------------------|
-66-6---66-6-------66-6---66-6-----------------------------------------------|

-(guitar one and two)--------------------------------------------------------|
-----------------------------------------------------------------------------|
-------------------------------------6-666---8-888---------------------------|
------8-----6h88--------8-----6h88---6-666---8-888---------------------------|
------------6h8---------------6h8----4-444---6-666---------------------------|
-66-6---66-6-------66-6---66-6-----------------------------------------------|

-(guitar one and two)--------------------------------------------------------|
-----------------------------------------------------------------------------|
--------------------5-6-8----------------------------------------------------|
------8-----6h88--8-5-6-8----------------------------------------------------|
------------6h8---8-3-4-6----------------------------------------------------|
-66-6---66-6------6----------------------------------------------------------|

(Bridge "There They Go")
-(guitar one and two)--------------------------------------------------------|
-----------------------------------------------------------------------------|
-8888-8888--11111111--6666---------------------------------------------------|
-8888-8888--11111111--6666--6666-6666-6666-6666------------------------------|
-6666-6666--9-9-9-9---4444--6666-6666-6666-6666------------------------------|
----------------------------4444-4444-4444-4444------------------------------|


-(guitar one and two)--------------------------------------------------------|
-----------------------------------------------------------------------------|
-8888-8888--11111111--6666--8888-8888--10-10---------------------------------|
-8888-8888--11111111--6666--8888-8888--10-10---------------------------------|
-6666-6666--9-9-9-9---4444--6666-6666--8--8----------------------------------|
-----------------------------------------------------------------------------|

Solo (guitar two play verse chords, timing is not the same as the verse so
listen to the recording)
-(guitar one)----------------------------------------------------------------|
-----------------------------------------------------------------------------|
-------6-(8)-6-----------------------8-(10)-10-10-10-10-10-6h8---------------|
-8-6-8---------8p6h8-6---------8-6-8---------------------------8(let ring)---|
-----------------------8-6---------------------------------------------------|
---------------------------6(let ring)---------------------------------------|
[ Tab from: http://www.guitartabs.cc/tabs/t/trooper/the_boys_in_the_bright_white_sports_car_tab.html ]
-------------------------------------------12(13)------12(13)----------------|
----------------------9vvv(let ring)-13(14)------13(14)----------------------|
-----6-8-8/10/8-6-8p6--------------------------------------------------------|
-6-8-------------------------------------------------------------------------|
-----------------------------------------------------------------------------|
-----------------------------------------------------------------------------|

--------------11(13)---/13-11----11------------------------------------------|
-12(14)-14(16)----------------14----14-13-14-13-11-13-11----11vvv------------|
---------------------------------------------------------13------------------|
-----------------------------------------------------------------------------|
-----------------------------------------------------------------------------|
-----------------------------------------------------------------------------|
-----------------------------------------------------9vvv--------------------|
—---9(9.5)9(9.5)---9(9.5)9(9.5)---9(9.5)9(9.5)-11vvv-------------------------|
-10-------------10-------------10--------------------------------------------|
-----------------------------------------------------------------------------|
-----------------------------------------------------------------------------|
-----------------------------------------------------------------------------|

-13-13-13-13p11h13-11(13)-14(16)-16-16(18)-18-18-18-18r17-17-17(18)----------|
-----------------------------------------------------------------------------|
-----------------------------------------------------------------------------|
-----------------------------------------------------------------------------|
-----------------------------------------------------------------------------|
-----------------------------------------------------------------------------|

(Bridge "There They Go")
-(guitar one and two)--------------------------------------------------------|
-----------------------------------------------------------------------------|
-8888-8888--11111111--6666---------------------------------------------------|
-8888-8888--11111111--6666--6666-6666-6666-6666------------------------------|
-6666-6666--9-9-9-9---4444--6666-6666-6666-6666------------------------------|
----------------------------4444-4444-4444-4444------------------------------|


-(guitar one and two)--------------------------------------------------------|
-----------------------------------------------------------------------------|
-8888-8888--11111111--6666--8888-8888--10-10---------------------------------|
-8888-8888--11111111--6666--8888-8888--10-10---------------------------------|
-6666-6666--9-9-9-9---4444--6666-6666--8--8----------------------------------|
-----------------------------------------------------------------------------|

Verse three
-(guitar one)----------------------------------------------------------------|
-----------------------------------------------------------------------------|
-----------------------------------------------------------------------------|
-----------------------------------------------------------------------------|
----8---8---8---8-----8---8---8---8------------------------------------------|
-xh6-xh6-xh6-xh6---xh6-xh6-xh6-xh6-------------------------------------------|

-(guitar one)----------------------------------------------------------------|
-----------------------------------------------------------------------------|
-----------------------------------------------------------------------------|
-----------------------------------------------------------------------------|
----8---8---8---8-----8---8---8---8-----6---6---6---6-----6---6---6---6------|
-xh6-xh6-xh6-xh6---xh6-xh6-xh6-xh6--—xh4-xh4-xh4-xh4---xh4-xh4-xh4-xh4-------|

-(guitar two)----------------------------------------------------------------|
-----------------------------------------------------------------------------|
-----------------------------------------------------------------------------|
----8-----------------------------------6------------------------------------|
----8-----------------------------------6------------------------------------|
----6-----------------------------------4------------------------------------|

-(guitar one)----------------------------------------------------------------|
-----------------------------------------------------------------------------|
-------------------------------------------------------------6-6-------------|
----6---6---6---6-----8---8---8---8---------------------6-6--6-6-------------|
-xh4-xh4-xh4-xh4---xh6-xh6-xh6-xh6------8---8---8---8---6-6--4-4-------------|
-------------------------------------xh6-xh6-xh6-xh6----4-4------------------|

I don't know what to call this but its there!!
-(guitar one and two)--------------------------------------------------------|
-----------------------------------------------------------------------------|
-----------------------------------------------------------------------------|
-8888-8888-8888-8888---------------------------------------------------------|
-8888-8888-8888-8888---------------------------------------------------------|
-6666-6666-6666-6666---------------------------------------------------------|

Bridge (La Da Da Da)(watch it it's a bit different)
-(guitar two)----------------------------------------------------------------|
-----------------------------------------------------------------------------|
-6-666--8-888----------------------------------------------------------------|
-6-666--8-888--------8-----6h88-------8-----6h88-----------------------------|
-4-444--6-666--------------6h8--------------6h8------------------------------|
----------------6-66---6-66------6-66---6-66---------------------------------|

(that is where guitar one starts i cant tell where it ends)
-(guitar one)--------17/13---------------------------------------------------|
-----------------------------------------------------------------------------|
-----------------------------------------------------------------------------|
-----------------------------------------------------------------------------|
-----------------------------------------------------------------------------|
-----------------------------------------------------------------------------|

-(guitar two)----------------------------------------------------------------|
-----------------------------------------------------------------------------|
-6-666--8-888----------------------------------------------------------------|
-6-666--8-888--------8-----6h88-------8-----6h88-----------------------------|
-4-444--6-666--------------6h8--------------6h8------------------------------|
----------------6-66---6-66------6-66---6-66---------------------------------|

(that is where guitar one starts i cant tell where it ends)
-(guitar eon)--------18vvv---------------------------------------------------|
-----------------------------9-----------------------------------------------|
--------------------------10---10-8-8/10-8-6-8-------------------------------|
-----------------------------------------------6/8-8-------------------------|
-----------------------------------------------------------------------------|
-----------------------------------------------------------------------------|

-(guitar two)----------------------------------------------------------------|
-----------------------------------------------------------------------------|
-6-666--8-888----------------------------------------------------------------|
-6-666--8-888--------8-----6h88-------8-----6h88-----------------------------|
-4-444--6-666--------------6h8--------------6h8------------------------------|
----------------6-66---6-66------6-66---6-66---------------------------------|

(that is where guitar one starts i cant tell where it ends)
-(guitar one)----------------------------------------------------------------|
----------------------10--10-10-10-8/10-1010---10---10-10-10-10---8----------|
------------------------------------------------------------------8----------|
-----------------------------------------------------------------------------|
-----------------------------------------------------------------------------|
-----------------------------------------------------------------------------|

-(guitar one and two)--------------------------------------------------------|
-----------------------------------------------------------------------------|
-6-666--8-888----------------------------------------------------------------|
-6-666--8-888----------------------------------------------------------------|
-4-444--6-666----------------------------------------------------------------|
-----------------------------------------------------------------------------|
Comments